Sound will begin in 5 seconds

We Beseech Thee

01234567891011121314151617181920212223
E
B
G
D
A
E
B
0 1 2 3 4 5 6 7 8 9 10 11 12 13 14 15 16 17 18 19 20 21 22 23
(/) Slide Up  (\) Slide Down  (h) Hammer On  (p) Pull Off  (b) Bend (r) Release (v) Vibrato

Stave 1:

E|-------------------------------------------------------------------------------------------------------
B|-------------------------------------------------------------------------------------------------------
G|-----7-----7-----7-----7-----7-----7-----7-----7-----7-----7-----7-----7-----7-----7-----7-----7-----7-
D|---7-----7-----7-----7-----7-----7-----7-----7-----7-----7-----7-----7-----7-----7-----7-----7-----7---
A|-5-----5-----5-----5-----5-----5-----5-----5-----5-----5-----5-----5-----5-----5-----5-----5-----5-----
E|-------------------------------------------------------------------------------------------------------

Stave 2:

E|-------------------------------------------------------------------------------------------
B|-------------------------------------------------------------------------------------------
G|-----7-----7-----7-----7-----7-----7-----7-----5-----5-----4-----4-----2-----2-----3-----3-
D|---7-----7-----7-----7-----7-----7-----7-----5-----5-----4-----4-----2-----2-----3-----3---
A|-5-----5-----5-----5-----5-----5-----5-----3-----3-----2-----2-----0-----0-----1-----1-----
E|-------------------------------------------------------------------------------------------

Stave 3:

E|-------------------------------------------------------------------------------------------------------
B|-------------------------------------------------------------------------------------------------------
G|-----5-----5-----5-----5-----7-----7-----7-----7-------12-------12-------12-------12-------13-------13-
D|---5-----5-----5-----5-----7-----7-----7-----7------12-------12-------12-------12-------13-------13----
A|-3-----3-----3-----3-----5-----5-----5-----5-----10-------10-------10-------10-------11-------11-------
E|-------------------------------------------------------------------------------------------------------

Stave 4:

E|-------------------------------------------------------------------------------------------------------
B|-------------------------------------------------------------------------------------------------------
G|-------13-------13-------14--------------4-----4-----4-----4-----4-----4-----4-----4-----4-----4-----4-
D|----13-------13-------14---------------4-----4-----4-----4-----4-----4-----4-----4-----4-----4-----4---
A|-11-------11-------12----------------2-----2-----2-----2-----2-----2-----2-----2-----2-----2-----2-----
E|-------------------------------------------------------------------------------------------------------

Stave 5:

E|-------------------------------------------------------------------------------------------------
B|-------------------------------------------------------------------------------------------------
G|-----4-----4-----4-----4-----4-----4-----4-----4-----4-----4-----4-----4-----4-------12-------12-
D|---4-----4-----4-----4-----4-----4-----4-----4-----4-----4-----4-----4-----4------12-------12----
A|-2-----2-----2-----2-----2-----2-----2-----2-----2-----2-----2-----2-----2-----10-------10-------
E|-------------------------------------------------------------------------------------------------

Stave 6:

E|---------------------------------------------------------------------------------------------------
B|---------------------------------------------------------------------------------------------------
G|-------12-------12------11------11------11------11-----4-----4-----4-----4-----7-----7-----7-----7-
D|----12-------12------11------11------11------11------4-----4-----4-----4-----7-----7-----7-----7---
A|-10-------10-------9-------9-------9-------9-------2-----2-----2-----2-----5-----5-----5-----5-----
E|---------------------------------------------------------------------------------------------------

Stave 7:

E|-------------------------------------------------------------------------------------------------
B|-------------------------------------------------------------------------------------------------
G|-------12-------12-------12-------12-------13-------13-------13-------13-----4-----4-----4-----4-
D|----12-------12-------12-------12-------13-------13-------13-------13------4-----4-----4-----4---
A|-10-------10-------10-------10-------11-------11-------11-------11-------2-----2-----2-----2-----
E|-------------------------------------------------------------------------------------------------

Stave 8:

E|-------------------------------------------------------------------------------------------------
B|-------------------------------------------------------------------------------------------------
G|-----7-----7-----7-----7-------12-------12-------12-------12-------13-------13-------13-------13-
D|---7-----7-----7-----7------12-------12-------12-------12-------13-------13-------13-------13----
A|-5-----5-----5-----5-----10-------10-------10-------10-------11-------11-------11-------11-------
E|-------------------------------------------------------------------------------------------------

Stave 9:

E|-------------------------------------------------------------------------------------
B|-------------------------------------------------------------------------------------
G|-----4-----4-----4-----4-----7-----7-----7-----7-------12-------12-------12-------12-
D|---4-----4-----4-----4-----7-----7-----7-----7------12-------12-------12-------12----
A|-2-----2-----2-----2-----5-----5-----5-----5-----10-------10-------10-------10-------
E|-------------------------------------------------------------------------------------

Stave 10:

E|-------------------------------------------------------------------------------------------
B|-------------------------------------------------------------------------------------------
G|-------13-------13-------13-------13-----7-----7-----7-----7-----7-----5-----5-----5-----5-
D|----13-------13-------13-------13------7-----7-----7-----7-----7-----5-----5-----5-----5---
A|-11-------11-------11-------11-------5-----5-----5-----5-----5-----3-----3-----3-----3-----
E|-------------------------------------------------------------------------------------------

Stave 11:

E|-------------------------------------------------------------------------
B|-------------------------------------------------------------------------
G|-------12-------12-------12-------12-------13-------13-------13-------13-
D|----12-------12-------12-------12-------13-------13-------13-------13----
A|-10-------10-------10-------10-------11-------11-------11-------11-------
E|-------------------------------------------------------------------------

Stave 12:

E|----------------------------
B|----------------------------
G|-------14--------2--------7-
D|----14---------2--------7---
A|-12----------0--------5-----
E|----------------------------

http://www.guitartabcreator.com
Guitar Tab Creator is intended to store guitar tab created through the tool. It currently does not support in-line text editing. Any text you place in here will be lost. If you need to comment on your tab, please use the "Tab Notes" section located below.