Not With You Intro- Ivy's Panic Room

Chords

01234567891011121314151617181920212223
E
B
G
D
A
E
B
0 1 2 3 4 5 6 7 8 9 10 11 12 13 14 15 16 17 18 19 20 21 22 23
(/) Slide Up  (\) Slide Down  (h) Hammer On  (p) Pull Off  (b) Bend (r) Release (v) Vibrato

Stave 1:

E|-------------------------------------------------------------------------------------------0----0----0----0----1----1----1----1----
B|-----------------------------------------------------------------6----6\5------------------1----1----1----1----1----1----1----1----
G|---------2----------------3----------------5----------------7----------------7\5-----------2----2----2----2----2----2----2----2----
D|----3---------3----3/5---------5----5/7---------7----7/8----------------------------7\5----3----3----3----3----3----3----3----3----
A|-----------------------------------------------------------------------------------------------------------------------------------
E|-----------------------------------------------------------------------------------------------------------------------------------

Stave 2:

E|----0----0----0----0----1----1----1----1----1----1----1----1----1----1----1----1----0----0----0----0---------------------------------------
B|----1----1----1----1----1----1----1----1----3----3----3----3----3----3----3----3----3----3----3----3--------------3--------------1---------
G|----2----2----2----2----2----2----2----2----2----2----2----2----2----2----2----2----2----2----2----2---------2--------------0---------0----
D|----3----3----3----3----3----3----3----3----0----0----0----0----0----0----0----0----0----0----0----0----0--------------3-------------------
A|-------------------------------------------------------------------------------------------------------------------------------------------
E|-------------------------------------------------------------------------------------------------------------------------------------------

Stave 3:

E|-------------------------------------------------------------------------------------------------------------
B|-------------------------------------------------------------------------------------------------------------
G|----3----3----3----3----3----3----3----3----3----3----3----3----3--------------3-------------------4---------
D|----3----3----3----3----3----3----3----3----3----3----3----3----3---------3---------3---------4---------4----
A|----1----1----1----1----1----1----0----1----0----1----1----1----1----1-------------------2-------------------
E|-------------------------------------------------------------------------------------------------------------

Stave 4:

E|--------------------------------------------------------------------------------------
B|--------------------------------------------------------------------------------------
G|----7----7----7----7----7----7----7----7----10----10----9----9----7----7----9----9----
D|----7----7----7----7----7----7----7----7----10----10----9----9----7----7----9----9----
A|----5----5----5----5----5----5----5----5----8-----8-----7----7----5----5----7----7----
E|--------------------------------------------------------------------------------------

							http://www.guitartabcreator.com
Instruments
{"strings":[[[".",".",".",".",".",".",".",".",".",".",".",".",".",".",".",".",".",".",".",".",".",".",".",".",".",".",".",0,0,0,0,1,1,1,1],[".",".",".",".",".",".",".",".",".",".",".",".",".",".",".",".",".",6,6,"\\",5,".",".",".",".",".",".",1,1,1,1,1,1,1,1],[".",2,".",".",".",".",3,".",".",".",".",5,".",".",".",".",7,".",".",".",".",7,"\\",5,".",".",".",2,2,2,2,2,2,2,2],[3,".",3,3,"/",5,".",5,5,"/",7,".",7,7,"/",8,".",".",".",".",".",".",".",".",7,"\\",5,3,3,3,3,3,3,3,3],[".",".",".",".",".",".",".",".",".",".",".",".",".",".",".",".",".",".",".",".",".",".",".",".",".",".",".",".",".",".",".",".",".",".","."],[".",".",".",".",".",".",".",".",".",".",".",".",".",".",".",".",".",".",".",".",".",".",".",".",".",".",".",".",".",".",".",".",".",".","."]],[[0,0,0,0,1,1,1,1,1,1,1,1,1,1,1,1,0,0,0,0,".",".",".",".",".",".","."],[1,1,1,1,1,1,1,1,3,3,3,3,3,3,3,3,3,3,3,3,".",".",3,".",".",1,"."],[2,2,2,2,2,2,2,2,2,2,2,2,2,2,2,2,2,2,2,2,".",2,".",".",0,".",0],[3,3,3,3,3,3,3,3,0,0,0,0,0,0,0,0,0,0,0,0,0,".",".",3,".",".","."],[".",".",".",".",".",".",".",".",".",".",".",".",".",".",".",".",".",".",".",".",".",".",".",".",".",".","."],[".",".",".",".",".",".",".",".",".",".",".",".",".",".",".",".",".",".",".",".",".",".",".",".",".",".","."]],[[".",".",".",".",".",".",".",".",".",".",".",".",".",".",".",".",".",".",".",".","."],[".",".",".",".",".",".",".",".",".",".",".",".",".",".",".",".",".",".",".",".","."],[3,3,3,3,3,3,3,3,3,3,3,3,3,".",".",3,".",".",".",4,"."],[3,3,3,3,3,3,3,3,3,3,3,3,3,".",3,".",3,".",4,".",4],[1,1,1,1,1,1,0,1,0,1,1,1,1,1,".",".",".",2,".",".","."],[".",".",".",".",".",".",".",".",".",".",".",".",".",".",".",".",".",".",".",".","."]],[[".",".",".",".",".",".",".",".",".",".",".",".",".",".",".","."],[".",".",".",".",".",".",".",".",".",".",".",".",".",".",".","."],[7,7,7,7,7,7,7,7,10,10,9,9,7,7,9,9],[7,7,7,7,7,7,7,7,10,10,9,9,7,7,9,9],[5,5,5,5,5,5,5,5,8,8,7,7,5,5,7,7],[".",".",".",".",".",".",".",".",".",".",".",".",".",".",".","."]]],"numberofstrings":6,"notes":["E","B","G","D","A","E","B"],"capo":0,"stringnotes":["E4","B3","G3","D3","A2","E2"],"comments":["Stave 1:","Stave 2:","Stave 3:","Stave 4:"],"timing":[[null,null,null,null,null,null,null,null,null,null,null,null,null,null,null,null,null,null,null,null,null,null,null,null,null,null,null,null,null,null,null,null,null,null,null],[null,null,null,null,null,null,null,null,null,null,null,null,null,null,null,null,null,null,null,null,null,null,null,null,null,null,null],[null,null,null,null,null,null,null,null,null,null,null,null,null,null,null,null,null,null,null,null,null,null,null],[null,null,null,null,null,null,null,null,null,null,null,null,null,null,null,null]],"timingvisible":false,"tabcounter":15,"stave":3,"totalstaves":4,"instrument":"6guitar","selectedtuning":"6_standard","version":"13"}

Member for

1 month 1 week
Submitted by GDFin on Mon, 2020-09-21 12:43