Sound will begin in 5 seconds

Misty Lead

01234567891011121314151617181920212223
E
B
G
D
A
E
B
0 1 2 3 4 5 6 7 8 9 10 11 12 13 14 15 16 17 18 19 20 21 22 23
Song Science #1: How Pros Use 6 Chords to Write Hit Songs
(/) Slide Up  (\) Slide Down  (h) Hammer On  (p) Pull Off  (b) Bend (r) Release (v) Vibrato

Stave 1:

E|----------------------------------------5/6/8/11--8------8--11/13--11---------------------------------
B|--8b11b8p6h8p6-----6---------------------------------11----------------13--------------------------4--
G|----------------7-----7p5h7-----3--5/6-------------------------------------12-------------------5-----
D|-------------------------------------------------------------------------------13--10-----5--6--------
A|------------------------------------------------------------------------------------------------------
E|------------------------------------------------------------------------------------------------------

Stave 2:

E|--2--4/6v--4/6--4--------5/6-------------6--8/10-------------------------------------------------------
B|-------------------7--4-------7-----7/8-----------------------------------------4--4--4-----6--4--6/8--
G|--------------------------------------------------8/10------8--------------3/5-----------5-------------
D|--------------------------------------------------------10-----10/3-----1------------------------------
A|---------------------------------------------------------------------3---------------------------------
E|-------------------------------------------------------------------------------------------------------

Stave 3:

E|--|------------------------------------------------------------------------
B|--|--/11\8-----14--13--12--11--14--13--12--11--13b15b13p11--13b15--13b15v--
G|--|------------------------------------------------------------------------
D|--|------------------------------------------------------------------------
A|--|------------------------------------------------------------------------
E|--0----------------------------------------------------------------------

http://www.guitartabcreator.com
Guitar Tab Creator is intended to store guitar tab created through the tool. It currently does not support in-line text editing. Any text you place in here will be lost. If you need to comment on your tab, please use the "Tab Notes" section located below.