Sound will begin in 5 seconds

Apache The Shadows

01234567891011121314151617181920212223
E
B
G
D
A
E
B
0 1 2 3 4 5 6 7 8 9 10 11 12 13 14 15 16 17 18 19 20 21 22 23
Song Science #1: How Pros Use 6 Chords to Write Hit Songs
(/) Slide Up  (\) Slide Down  (h) Hammer On  (p) Pull Off  (b) Bend (r) Release (v) Vibrato

Stave 1:

E|-------|-----5-3-0v-|-
B|---1-3b|---1--------|-
G|-2-----|-2----------|-
D|-------|------------|-
A|-------|------------|-
E|-------|------------|-

Stave 2:

E|-----------------|-----------------|-------------------|---------------|-
B|-----------------|-----------------|-----3---3-0-------|---------------|-
G|---2---2---------|---2---2---------|---2---2-----2-0-2-|---2---2-------|-
D|-2---2---4-2-0-2-|-2---2---4-2-0-2-|-2-----------------|-2---2---4-2-2-|-
A|-----------------|-----------------|-------------------|---------------|-
E|-----------------|-----------------|-------------------|---------------|-

Stave 3:

E|-----------------------------|-------------0-------|---|-----------------------|----------------|-
B|-----------------------------|-----1-0-1-3---3-1---|-1-|-----1-0-1-3-------8---|----11----------|-
G|-----------------------------|---2---------------2-|---|---2---------0-7/9---9-|-12----12-11/12-|-
D|---3-3-3-3-3---3-3-3-3-3-2---|-3-------------------|---|-3---------------------|----------------|-
A|-3-----------3-------------0-|---------------------|---|-----------------------|----------------|-
E|-----------------------------|---------------------|---|-----------------------|----------------|-

Stave 4:

E|-------------0--------|-----------------------------|-----------------------------|-
B|-----1-0-1-3---3-0----|-----------------------------|-----------------------------|-
G|---2---------------2v-|-----------------------------|-----------------------------|-
D|-3--------------------|---3-3-3-3-3---3-3-3-3-3-2/0-|---3-3-3-3-3---3-3-3-3-3-2-0-|-
A|----------------------|-3-----------3---------------|-3-----------3---------------|-
E|----------------------|-----------------------------|-----------------------------|-

Stave 5:

E|-----------------------------------------|-----------------------------------------|-
B|-----------------------------------------|-----------------------------------------|-
G|-----------------------------------------|-----------------------------------------|-
D|---7-7-7-7-7-----7---9-9-9-9-9-7-5-5-5-7-|---7-7-7-7-7-----7---9-9-9-9-9-7-5-5-5-7-|-
A|-7-----------7-7---7---------------------|-7-----------7-7---7---------------------|-
E|-----------------------------------------|-----------------------------------------|-

Stave 6:

E|-------------------------|-------------------------|-------------0-------|---------------|-
B|-------------------------|-------------------------|-----1-0-1-3---3-1---|-----1-0-1-3---|-
G|---7---7-----------------|---7---7-----------------|---2---------------2-|---2---------0-|-
D|-7---7---7-9-9-9-9-9-7-5-|-7---7---7-9-9-9-9-9-7-5-|-3-------------------|-3-------------|-
A|-------------------------|-------------------------|---------------------|---------------|-
E|-------------------------|-------------------------|---------------------|---------------|-

Stave 7:

E|-------------0-------|-----------------------------|-------------------------------------------|-
B|-----1-0-1-3---3-1---|-----------------------------|-------------------------------------------|-
G|---2---------------2-|-----------------------------|-------------------------------------------|-
D|-3-------------------|---3-3-3-3-3---3-3-3-3-3-2---|-------------------------------------------|-
A|---------------------|-3-----------3-------------0-|---------------------3-3-3-3-3/8-8-8-8-8\7-|-
E|---------------------|-----------------------------|-1-1-1-1-1/5-5-5-5-5-----------------------|-

Stave 8:

E|-------|-----5-3-0v-|-
B|---1-3b|---1--------|-
G|-2-----|-2----------|-
D|-------|------------|-
A|-------|------------|-
E|-------|------------|-

http://www.guitartabcreator.com
Guitar Tab Creator is intended to store guitar tab created through the tool. It currently does not support in-line text editing. Any text you place in here will be lost. If you need to comment on your tab, please use the "Tab Notes" section located below.