Neki iz tiktoka

01234567891011121314151617181920212223
E
B
G
D
A
E
B
0 1 2 3 4 5 6 7 8 9 10 11 12 13 14 15 16 17 18 19 20 21 22 23
(/) Slide Up  (\) Slide Down  (h) Hammer On  (p) Pull Off  (b) Bend (r) Release (v) Vibrato

Stave 1:

E|--2--4--6--6--9---11--5/6---------------------------------9--6--------------------------6-----5/6---------------------------------
B|--4--6--7--7--11--11-------9--7--5/6-------------------7--------6--7--9--7--------6--7-------------9--7--5/6-------------------7--
G|--3--6--6--8--10--11------------------6-----6h8--6--8--------------------------8-----------8------------------6-----6h8--6--8-----
D|--4--6--8--9--11--11---------------------8----------------------------------8------------------------------------8----------------
A|--2--5--6-------------------------------------------------------------------------------------------------------------------------
E|----------------------------------------------------------------------------------------------------------------------------------

Stave 2:

E|--9--6-------------------------------------------------------------------------------------------------------------------------
B|--------7h9--7-----10/11--10/11------11--12--11--------------------------------10/11--10/11------11--12--11--------------------
G|----------------8----------------11--------------13--11--13/14\13--11------11----------------11--------------13--11--13/14\13--
D|-----------------------------------------------------------------------13------------------------------------------------------
A|-------------------------------------------------------------------------------------------------------------------------------
E|-------------------------------------------------------------------------------------------------------------------------------

Stave 3:

E|-------------------------------------
B|---------------------14--16----------
G|--11------11--13/15----------13--11--
D|------13-----------------------------
A|-------------------------------------
E|-------------------------------------

							http://www.guitartabcreator.com
Chords

Instruments
{"strings":[[[2,4,6,6,9,11,5,"/",6,".",".",".",".",".",".",".",".",".",".",".",".",".",9,6,".",".",".",".",".",".",".",".",6,".",5,"/",6,".",".",".",".",".",".",".",".",".",".",".",".","."],[4,6,7,7,11,11,".",".",".",9,7,5,"/",6,".",".",".",".",".",".",".",7,".",".",6,7,9,7,".",".",6,7,".",".",".",".",".",9,7,5,"/",6,".",".",".",".",".",".",".",7],[3,6,6,8,10,11,".",".",".",".",".",".",".",".",6,".",6,"h",8,6,8,".",".",".",".",".",".",".",".",8,".",".",".",8,".",".",".",".",".",".",".",".",6,".",6,"h",8,6,8,"."],[4,6,8,9,11,11,".",".",".",".",".",".",".",".",".",8,".",".",".",".",".",".",".",".",".",".",".",".",8,".",".",".",".",".",".",".",".",".",".",".",".",".",".",8,".",".",".",".",".","."],[2,5,6,".",".",".",".",".",".",".",".",".",".",".",".",".",".",".",".",".",".",".",".",".",".",".",".",".",".",".",".",".",".",".",".",".",".",".",".",".",".",".",".",".",".",".",".",".",".","."],[".",".",".",".",".",".",".",".",".",".",".",".",".",".",".",".",".",".",".",".",".",".",".",".",".",".",".",".",".",".",".",".",".",".",".",".",".",".",".",".",".",".",".",".",".",".",".",".",".","."]],[[9,6,".",".",".",".",".",".",".",".",".",".",".",".",".",".",".",".",".",".",".",".",".",".",".",".",".",".",".",".",".",".",".",".",".",".",".",".",".",".",".",".",".","."],[".",".",7,"h",9,7,".",10,"/",11,10,"/",11,".",11,12,11,".",".",".",".",".",".",".",".",".",".",10,"/",11,10,"/",11,".",11,12,11,".",".",".",".",".",".","."],[".",".",".",".",".",".",8,".",".",".",".",".",".",11,".",".",".",13,11,13,"/",14,"\\",13,11,".",11,".",".",".",".",".",".",11,".",".",".",13,11,13,"/",14,"\\",13],[".",".",".",".",".",".",".",".",".",".",".",".",".",".",".",".",".",".",".",".",".",".",".",".",".",13,".",".",".",".",".",".",".",".",".",".",".",".",".",".",".",".",".","."],[".",".",".",".",".",".",".",".",".",".",".",".",".",".",".",".",".",".",".",".",".",".",".",".",".",".",".",".",".",".",".",".",".",".",".",".",".",".",".",".",".",".",".","."],[".",".",".",".",".",".",".",".",".",".",".",".",".",".",".",".",".",".",".",".",".",".",".",".",".",".",".",".",".",".",".",".",".",".",".",".",".",".",".",".",".",".",".","."]],[[".",".",".",".",".",".",".",".",".","."],[".",".",".",".",".",".",14,16,".","."],[11,".",11,13,"/",15,".",".",13,11],[".",13,".",".",".",".",".",".",".","."],[".",".",".",".",".",".",".",".",".","."],[".",".",".",".",".",".",".",".",".","."]]],"numberofstrings":6,"notes":["E","B","G","D","A","E","B"],"capo":0,"stringnotes":["E4","B3","G3","D3","A2","E2"],"comments":["Stave 1:","Stave 2:","Stave 3:"],"timing":[["W","W","W","W","W","W","W",null,"W","W","W","W",null,"W","W","W","W",null,"W","W","W","W","W","W","W","W","W","W","W","W","W","W","W","W","W",null,"W","W","W","W",null,"W","W","W","W",null,"W","W","W","W","W"],["W","W","W",null,"W","W","W","W",null,"W","W",null,"W","W","W","W","W","W","W","W",null,"W",null,"W","W","W","W","W",null,"W","W",null,"W","W","W","W","W","W","W","W",null,"W",null,"W"],["W","W","W","W",null,"W","W","W","W","W"]],"timingvisible":false,"tabcounter":10,"stave":2,"totalstaves":3,"instrument":"6guitar","selectedtuning":"6_standard","version":"13"}

Member for

1 month 2 weeks
About Me
just an intermediate player trying tabs
Submitted by Gasper prelovsek on Thu, 2021-01-21 05:33