Sound will begin in 5 seconds

Patterns 1

01234567891011121314151617181920212223
E
B
G
D
A
E
B
0 1 2 3 4 5 6 7 8 9 10 11 12 13 14 15 16 17 18 19 20 21 22 23
Song Science #1: How Pros Use 6 Chords to Write Hit Songs
(/) Slide Up  (\) Slide Down  (h) Hammer On  (p) Pull Off  (b) Bend (r) Release (v) Vibrato

Stave 1:

E|-------------------------------------------------------------1--4--2--4--
B|-------------------------------------------------1--4--2--4--------------
G|-------------------------------------1--4--2--4--------------------------
D|-------------------------1--4--2--4--------------------------------------
A|-------------1--4--2--4--------------------------------------------------
E|--1--4--2--4--------------------------------------------------------------

Stave 2:

E|--1--4--2--4--------------------------------------------------------------
B|-------------1--4--2--4--------------------------------------------------
G|-------------------------1--4--2--4--------------------------------------
D|-------------------------------------1--4--2--4--------------------------
A|-------------------------------------------------1--4--2--4--------------
E|-------------------------------------------------------------1--4--2--4--

Stave 3:

E|-------------------------------------------------------------------------
B|-------------------------------------------------------------------------
G|-------------------------------------------------------------1--4--2--4--
D|-------------------------1--4--2--4--------------1--4--2--4--------------
A|-------------1--4--2--4--------------1--4--2--4--------------------------
E|--1--4--2--4--------------------------------------------------------------

Stave 4:

E|-------------------------------------------------------------1--4--2--4--
B|-------------------------1--4--2--4--------------1--4--2--4--------------
G|-------------1--4--2--4--------------1--4--2--4--------------------------
D|--1--4--2--4--------------------------------------------------------------
A|-------------------------------------------------------------------------
E|-------------------------------------------------------------------------

Stave 5:

E|-------------------------------------------------------------------------------------1--4--2--4--
B|-------------------------------------------------------------1--4--2--4--------------------------
G|-------------------------------------1--4--2--4--------------------------1--4--2--4--------------
D|-------------1--4--2--4--------------------------1--4--2--4--------------------------------------
A|-------------------------1--4--2--4--------------------------------------------------------------
E|--1--4--2--4--------------------------------------------------------------------------------------

Stave 6:

E|--1--4--2--4--------------------------------------------------------------------------------------
B|-------------------------1--4--2--4--------------------------------------------------------------
G|-------------1--4--2--4--------------------------1--4--2--4--------------------------------------
D|-------------------------------------1--4--2--4--------------------------1--4--2--4--------------
A|-------------------------------------------------------------1--4--2--4--------------------------
E|-------------------------------------------------------------------------------------1--4--2--4--

Stave 7:

E|-----------------------------------------------------------------------------------------------------
B|-----------------------------------------------------------------------------------------------------
G|-----------------------------------------------------------------------------------------------------
D|-----------------------------------------------------------------------------------------------------
A|-----------------------------------------------------------------------------------------------------
E|--1--5--3--5-----------3--7--5--7-----------5--8--7--8-----------7--10--8--10-----------8--12--10-----

Stave 8:

E|---------------------------------------------------------------------------------------------------
B|---------------------------------------------------------------------------------------------------
G|---------------------------------------------------------------------------------------------------
D|---------------------------------------------------------------------------------------------------
A|---------------------------------------------------------------------------------------------------
E|--1--5--3--5-----------5--8--7--8-----------3--7--5--7-----------7--10--8--10-----------5--8--7--8--

Stave 9:

E|----------------------------------------------------------------------------------------------------
B|----------------------------------------------------------------------------------------------------
G|----------------------------------------------------------------------------------------------------
D|----------------------------------------------------------------------------------------------------
A|-------------2--5--3--5--------------3--7--5--7--------------5--8--7--8----------------7--10--8-----
E|--1--5--3--5--------------3--7--5--7--------------5--8--7--8--------------7--10--8--10---------------

Stave 10:

E|----------------------------------------------------------------------------------------------------
B|----------------------------------------------------------------------------------------------------
G|----------------------------------------------------------------------------------------------------
D|----------------------------------------------------------------------------------------------------
A|-------------2--5--3--5--------------5--8--7--8--------------3--7--5--7----------------7--10--8-----
E|--1--5--3--5--------------5--8--7--8--------------3--7--5--7--------------7--10--8--10---------------

Stave 11:

E|----------------------------------------------------------------------------------------------------
B|----------------------------------------------------------------------------------------------------
G|----------------------------------------------------------------------------------------------------
D|-------------2--5--3--5--------------3--7--5--7--------------5--9--7--9----------------7--10--9-----
A|----------------------------------------------------------------------------------------------------
E|--1--5--3--5--------------3--7--5--7--------------5--8--7--8--------------7--10--8--10---------------

Stave 12:

E|----------------------------------------------------------------------------------------------------
B|----------------------------------------------------------------------------------------------------
G|----------------------------------------------------------------------------------------------------
D|-------------2--5--3--5--------------5--9--7--9--------------3--7--5--7----------------7--10--9-----
A|----------------------------------------------------------------------------------------------------
E|--1--5--3--5--------------5--8--7--8--------------3--7--5--7--------------7--10--8--10---------------

http://www.guitartabcreator.com
Guitar Tab Creator is intended to store guitar tab created through the tool. It currently does not support in-line text editing. Any text you place in here will be lost. If you need to comment on your tab, please use the "Tab Notes" section located below.