Sound will begin in 5 seconds

Joy of Picking

01234567891011121314151617181920212223
E
B
G
D
A
E
B
0 1 2 3 4 5 6 7 8 9 10 11 12 13 14 15 16 17 18 19 20 21 22 23
Song Science #1: How Pros Use 6 Chords to Write Hit Songs
(/) Slide Up  (\) Slide Down  (h) Hammer On  (p) Pull Off  (b) Bend (r) Release (v) Vibrato

Stave 1:

E|-------------------------------------------9--12--9---------10--12--9--12--7--12------12-----------7--10--7--------
B|--------------------------------10--9--10------------10---------------------------10------9--8--9------------9-----
G|-----------------------------9---------------------------9------------------------------------------------------9--
D|--------------9--11--10--11----------------------------------------------------------------------------------------
A|--12--11--12-------------------------------------------------------------------------------------------------------
E|-------------------------------------------------------------------------------------------------------------------

Stave 2:

E|-------------------------------------------9--12--9---------10--------------11--------------12----------------------
B|--------------------------------10--9--10------------10---------10--------------12--------------12------12----------
G|-----------------------------9---------------------------9----------11--------------11--------------13--------------
D|--------------9--11--10--11---------------------------------------------12--------------13------------------14v-----
A|--12--11--12--------------------------------------------------------------------------------------------------------
E|--------------------------------------------------------------------------------------------------------------------

Stave 3:

E|--14--12--10----------------------12--10--9--------------------10--9--7----------------------------------9--12--13--
B|--------------14--12--10---------------------12--10--9-------------------10--9--7-----------------5--10-------------
G|--------------------------13--11------------------------11--9----------------------9--7--6--5--6--------------------
D|--------------------------------------------------------------------------------------------------------------------
A|--------------------------------------------------------------------------------------------------------------------
E|--------------------------------------------------------------------------------------------------------------------

Stave 4:

E|--14--12--10----------------------12--10--9--------------------10--9--7-----------------------------------------
B|--------------14--12--10---------------------12--10--9-------------------10--9--7--9--12--10--------------------
G|--------------------------13--11------------------------11--9---------------------------------9------9----------
D|-------------------------------------------------------------------------------------------------11-------------
A|--------------------------------------------------------------------------------------------------------12v-----
E|----------------------------------------------------------------------------------------------------------------

http://www.guitartabcreator.com
Guitar Tab Creator is intended to store guitar tab created through the tool. It currently does not support in-line text editing. Any text you place in here will be lost. If you need to comment on your tab, please use the "Tab Notes" section located below.