Sound will begin in 5 seconds

Hybrid Picking Workout - 1

01234567891011121314151617181920212223
E
B
G
D
A
E
B
0 1 2 3 4 5 6 7 8 9 10 11 12 13 14 15 16 17 18 19 20 21 22 23
Song Science #1: How Pros Use 6 Chords to Write Hit Songs
(/) Slide Up  (\) Slide Down  (h) Hammer On  (p) Pull Off  (b) Bend (r) Release (v) Vibrato

Stave 1:

E|--------------------------------------------------5-----8-----8-----10-----10b
B|--------------------------------------5-----8--------5-----8-----8------8-----
G|--------------------------5-----7--------5-----7------------------------------
D|--------------5-----7--------5-----7------------------------------------------
A|--5-----7--------5-----7------------------------------------------------------
E|-----5-----8------------------------------------------------------------------

Stave 2:

E|-------------------------------------------------------------------------------------------------------------
B|-------------------------------------------------------------------------------------------------------------
G|--------4--------7--------9--------12---------14----------16----------14---------12--------9--------7--------
D|-----2-----2--5-----5--7-----7--9------9--12------12--14------14--12------12--9------9--7-----7--5-----5--2--
A|-------------------------------------------------------------------------------------------------------------
E|-------------------------------------------------------------------------------------------------------------

Stave 3:

E|---------------------------------------------------------------------------------------------------------------
B|---------------------------------------------------------------------------------------------------------------
G|--------4--7-----7--9-----9--12-----12--14------14--16------16--14------14--12-----12--9-----9--7-----7--4-----
D|-----2--------5--------7---------9----------12----------14----------12----------9---------7--------5--------2--
A|---------------------------------------------------------------------------------------------------------------
E|---------------------------------------------------------------------------------------------------------------

Stave 4:

E|--------------------
B|--------------------
G|--------4-----4--7--
D|-----2-----2--------
A|--------------------
E|--------------------

Stave 5:

E|--------------------
B|--------------------
G|-----4-----4--------
D|--------2-----2--5--
A|--------------------
E|--------------------

Stave 6:

E|------------------------------
B|-----------5--8--------8--10--
G|--------4-----------7---------
D|-----2-----------5------------
A|------------------------------
E|------------------------------

Stave 7:

E|-----------------------------
B|--------5-----------8--------
G|-----------4--7--------7--9--
D|-----2-----------5-----------
A|-----------------------------
E|-----------------------------

Stave 8:

E|-----------------
B|-----------5--8--
G|-----4-----------
D|--------2--------
A|-----------------
E|-----------------

Stave 9:

E|-----------------
B|--------5--------
G|-----4-----------
D|-----------2--5--
A|-----------------
E|-----------------

Stave 10:

E|-----
B|-----
G|-----
D|-----
A|-----
E|-----

http://www.guitartabcreator.com
Guitar Tab Creator is intended to store guitar tab created through the tool. It currently does not support in-line text editing. Any text you place in here will be lost. If you need to comment on your tab, please use the "Tab Notes" section located below.