Sound will begin in 5 seconds

Renegades

Chords
01234567891011121314151617181920212223
E
B
G
D
A
E
B
0 1 2 3 4 5 6 7 8 9 10 11 12 13 14 15 16 17 18 19 20 21 22 23
Song Science #1: How Pros Use 6 Chords to Write Hit Songs
(/) Slide Up  (\) Slide Down  (h) Hammer On  (p) Pull Off  (b) Bend (r) Release (v) Vibrato

Stave 1:

E|----------------------
B|--3--2--2--0----------
G|--2--2--2--2--2--2/4--
D|----------------------
A|----------------------
E|----------------------

Stave 2:

E|--14--14--10--10--12--12--10--10--
B|--12--12--10--10--10--10--10--10--
G|--11--11--7---7---9---9---12--12--
D|----------------------------------
A|----------------------------------
E|----------------------------------

Stave 3:

E|----------14-------------10-------------12--------------10------
B|------12------12-----10------10-----10------10------10------10--
G|--11--------------7--------------9--------------12--------------
D|----------------------------------------------------------------
A|----------------------------------------------------------------
E|----------------------------------------------------------------

Stave 4:

E|-------------------------------10--12--12b13--12b13--
B|-----------------------10--12------------------------
G|----------------9--11--------------------------------
D|---------9--12---------------------------------------
A|--9--12----------------------------------------------
E|-----------------------------------------------------

Stave 5:

E|----------10--12--12b13--12b13----------10--12--12b13--12b13--
B|--10--12------------------------10--12------------------------
G|--------------------------------------------------------------
D|--------------------------------------------------------------
A|--------------------------------------------------------------
E|--------------------------------------------------------------

Stave 6:

E|--12p10---------------------------------------------------
B|---------12p10--------------------------------------------
G|----------------11p9--9\7--7\4--4\2--2/4--4/7--7/9--9/11--
D|----------------------------------------------------------
A|----------------------------------------------------------
E|----------------------------------------------------------

Stave 7:

E|--14--12--14--17--
B|--12--10--12--15--
G|--11--9---11--14--
D|------------------
A|------------------
E|------------------

http://www.guitartabcreator.com
Guitar Tab Creator is intended to store guitar tab created through the tool. It currently does not support in-line text editing. Any text you place in here will be lost. If you need to comment on your tab, please use the "Tab Notes" section located below.