Sound will begin in 5 seconds

Pick Me Up

Chords
01234567891011121314151617181920212223
E
B
G
D
A
E
B
0 1 2 3 4 5 6 7 8 9 10 11 12 13 14 15 16 17 18 19 20 21 22 23
Song Science #1: How Pros Use 6 Chords to Write Hit Songs
(/) Slide Up  (\) Slide Down  (h) Hammer On  (p) Pull Off  (b) Bend (r) Release (v) Vibrato

Stave 1:

E|--0---0--0--0--0--0---0--0--0-----
B|--9---7--5--5--7--9---5--5--5-----
G|--13--9--4--4--9--13--4--4--4-----
D|-------------------------7--------
A|----------------------------------
E|----------------------------------

Stave 2:

E|--0--0--0--
B|--5--5--5--
G|--4--4--4--
D|-----7-----
A|-----------
E|-----------

Stave 3:

E|--0--0--0--0--0--0--4--6--
B|--0--0--5--7--5--7--5--5--
G|--4--6--4--4--4--4--4--4--
D|--------------------------
A|--------------------------
E|--------------------------

Stave 4:

E|--0--0--0--0--0--0--0--0--0-----
B|--0--0--5--7--7--5--0--0--0-----
G|--4--6--4--4--4--4--6--5--4-----
D|--------------------------------
A|--------------------------------
E|--------------------------------

Stave 5:

E|--12--14--12--7--4--2--0--0--0--
B|--9---12--10--9--5--5--5--5--5--
G|--9---13--11--9--------4--4--4--
D|--9-----------------------7-----
A|--------------------------------
E|--------------------------------

Stave 6:

E|--0---0---0---
B|--12--12--12--
G|--9---8---9---
D|----------11--
A|--------------
E|--------------

http://www.guitartabcreator.com
Guitar Tab Creator is intended to store guitar tab created through the tool. It currently does not support in-line text editing. Any text you place in here will be lost. If you need to comment on your tab, please use the "Tab Notes" section located below.