Sound will begin in 5 seconds

House Party

Chords
01234567891011121314151617181920212223
E
B
G
D
A
E
B
0 1 2 3 4 5 6 7 8 9 10 11 12 13 14 15 16 17 18 19 20 21 22 23
Song Science #1: How Pros Use 6 Chords to Write Hit Songs
(/) Slide Up  (\) Slide Down  (h) Hammer On  (p) Pull Off  (b) Bend (r) Release (v) Vibrato

Stave 1:

E|------------------------------------------------
B|------------------------------------------------
G|--10b12b10--8--10b12--10b12b10--8--10b12b10--8--
D|------------------------------------------------
A|------------------------------------------------
E|------------------------------------------------

Stave 2:

E|------------------------------
B|--11--8--11--8----------------
G|----------------10--10--8--8--
D|------------------------------
A|------------------------------
E|------------------------------

Stave 3:

E|--------------
B|--------------
G|-----------8--
D|--8--8--8-----
A|--6--6--6-----
E|--------------

Stave 4:

E|------------------------------------------
B|--3h4--4--4--4--4--4--3h4--4--4--4--4--4--
G|------------------------------------------
D|------------------------------------------
A|------------------------------------------
E|------------------------------------------

Stave 5:

E|----------------------------------------------------------------------------------
B|----------------------------------------------------------------------------------
G|--------8--------8--------8--------8--------8--10--10--10--10--10--10--10--10-----
D|--8h10-----8h10-----8h10-----8h10-----8h10----------------------------------------
A|----------------------------------------------------------------------------------
E|----------------------------------------------------------------------------------

Stave 6:

E|-----------------------------------------------------------------------------
B|-----------------------------------------------------------------------------
G|--10p8--------8-------3--3--5p3--3--3-------10--3----------------------------
D|--------8h10-----3h5-------------------5/8---------8h10--10--10--10p8--3-----
A|--------------------------------------------------------------------------6--
E|-----------------------------------------------------------------------------

http://www.guitartabcreator.com
Guitar Tab Creator is intended to store guitar tab created through the tool. It currently does not support in-line text editing. Any text you place in here will be lost. If you need to comment on your tab, please use the "Tab Notes" section located below.