Sound will begin in 5 seconds

Brown Eyed Girl

Chords
01234567891011121314151617181920212223
E
B
G
D
A
E
B
0 1 2 3 4 5 6 7 8 9 10 11 12 13 14 15 16 17 18 19 20 21 22 23
Song Science #1: How Pros Use 6 Chords to Write Hit Songs
(/) Slide Up  (\) Slide Down  (h) Hammer On  (p) Pull Off  (b) Bend (r) Release (v) Vibrato

Stave 1:

E|--------3-----------3-----------------------2-----
B|-----3-----3--1--1-----1--------3--------3-----3--
G|--4--------------------------4-----4--2-----------
D|--------------------------5-----------------------
A|--------------------------------------------------
E|--------------------------------------------------

Stave 2:

E|--------0-----------2-----3--5--3--2--0-----------
B|-----1-----1-----3-----3-----------------0-----0--
G|--0-----------2-----------------------------0-----
D|--------------------------------------------------
A|--------------------------------------------------
E|--------------------------------------------------

Stave 3:

E|--------0-----------2-----------3-----10--10--8--7--5--
B|-----1-----1-----3-----3-----3-----3--8---8---8--8--5--
G|--0-----------2-----------4----------------------------
D|-------------------------------------------------------
A|-------------------------------------------------------
E|-------------------------------------------------------

Stave 4:

E|--3--3-----2--
B|--3--1--3--3--
G|--4-----4--2--
D|--------5-----
A|--------------
E|--------------

Stave 5:

E|-----------------------------------------------------
B|-----------------------------------------------------
G|-----------------------------------------------------
D|--5--5--5--5--5--5--5-----------------------2--3--5--
A|-----------------------7--5-----------2--3-----------
E|-----------------------------3--3--3-----------------

Stave 6:

E|--------------------------
B|--------------------------
G|--------------------------
D|--------------------------
A|-----2--3--3--5--5--7--5--
E|--3-----------------------

http://www.guitartabcreator.com
Guitar Tab Creator is intended to store guitar tab created through the tool. It currently does not support in-line text editing. Any text you place in here will be lost. If you need to comment on your tab, please use the "Tab Notes" section located below.