Sound will begin in 5 seconds

im wise enough to know better

01234567891011121314151617181920212223
E
B
G
D
A
E
B
0 1 2 3 4 5 6 7 8 9 10 11 12 13 14 15 16 17 18 19 20 21 22 23
Song Science #1: How Pros Use 6 Chords to Write Hit Songs
(/) Slide Up  (\) Slide Down  (h) Hammer On  (p) Pull Off  (b) Bend (r) Release (v) Vibrato

Capo Fret 3

Stave 1:

D|-----------------------------------------------------------------
A|-----------------------------------------------------------------
F|-------------------------11--0-----------------------------------
C|-----12--0----------------------2--12--0-----12--0---------------
B|------------2--14--0--3-----------------------------2--14--0--3--
D|------------------------------------------3----------------------

Stave 2:

D|---------------------------------------------------------------------------------------------------
A|---------------------------------------------------------------------------------------------------
F|------------------------------------------11--0---------------12--0---------------14--0------------
C|--12/14--2------------12--0----------------------2--12--0------------2--12--0------------4--16--0--
B|------------12--3------------2--14--0--3-------------------3-------------------5-------------------
D|-------------------3-------------------------------------------------------------------------------

Stave 3:

D|--------
A|--------
F|--------
C|--------
B|--------
D|--------

http://www.guitartabcreator.com
Guitar Tab Creator is intended to store guitar tab created through the tool. It currently does not support in-line text editing. Any text you place in here will be lost. If you need to comment on your tab, please use the "Tab Notes" section located below.