Sound will begin in 5 seconds

Ulices Chaidez - Si Terminamos

Chords
01234567891011121314151617181920212223
E
B
G
D
A
E
B
0 1 2 3 4 5 6 7 8 9 10 11 12 13 14 15 16 17 18 19 20 21 22 23
Song Science #1: How Pros Use 6 Chords to Write Hit Songs
(/) Slide Up  (\) Slide Down  (h) Hammer On  (p) Pull Off  (b) Bend (r) Release (v) Vibrato

Stave 1:

E|-----0--0--4--2--0--0--
B|-----0--2--5--3--2--2--
G|--2--------------------
D|-----------------------
A|-----------------------
E|-----------------------

Stave 2:

E|--4--4--4--4--2--2--0--0--0--
B|--5--5--5--5--3--3--2--2--2--
G|-----------------------------
D|-----------------------------
A|-----------------------------
E|-----------------------------

Stave 3:

E|--0--4--4--2--2/4--4--
B|--2--5--5--3--3-5--5--
G|----------------------
D|----------------------
A|----------------------
E|----------------------

Stave 4:

E|--16--16--16--16--14--14--12--12--12--
B|--17--17--17--17--15--15--14--14--14--
G|--------------------------------------
D|--------------------------------------
A|--------------------------------------
E|--------------------------------------

Stave 5:

E|--12--14--16--16--14--14--14--14--14--
B|--14--15--17--17--15--15--15--15--15--
G|--------------------------------------
D|--------------------------------------
A|--------------------------------------
E|--------------------------------------

Stave 6:

E|--16--16--16--16--14--14--12--10--12--10--
B|--17--17--17--17--15--15--14--12--14--12--
G|------------------------------------------
D|------------------------------------------
A|------------------------------------------
E|------------------------------------------

Stave 7:

E|--12--12--12--14--14--12--12--10--10--9---
B|--14--14--14--15--15--14--14--12--12--10--
G|------------------------------------------
D|------------------------------------------
A|------------------------------------------
E|------------------------------------------

http://www.guitartabcreator.com
Guitar Tab Creator is intended to store guitar tab created through the tool. It currently does not support in-line text editing. Any text you place in here will be lost. If you need to comment on your tab, please use the "Tab Notes" section located below.