Sound will begin in 5 seconds

sweet disaster

01234567891011121314151617181920212223
E
B
G
D
A
E
B
0 1 2 3 4 5 6 7 8 9 10 11 12 13 14 15 16 17 18 19 20 21 22 23
(/) Slide Up  (\) Slide Down  (h) Hammer On  (p) Pull Off  (b) Bend (r) Release (v) Vibrato

1

G|--------------------------------------------------
D|--------------------------------------------------
A|--------------------------------------------------
E|--1--8--3--0--1--8--3--5--1--8--3--0--1--8--3--5--

2

G|-----------------------------------------------------------------------------------
D|-----------------------------------------------------------------------------------
A|-----------------------------------------------------------------------------------
E|--1--1--8--8--3--3--5--5--5--1--1--8--8--3--3--5--5--5--1--1--8--8--3--3--5--5--5--

2c

G|-----------------------------
D|-----------------------------
A|-----------------------------
E|--1--1--8--8--3--3--0--0--0--

3

G|--------------------------------------------------------------------------------------------------
D|--------------------------------------------------------------------------------------------------
A|--------------------------------------------------------------------------------------------------
E|--1--1--1--1--1--1--1--1--8--8--8--8--8--8--8--8--3--3--3--3--3--3--3--3--0--0--0--0--0--0--0--0--

3c

G|--------------------------------------------------------------------------------------------------
D|--------------------------------------------------------------------------------------------------
A|--------------------------------------------------------------------------------------------------
E|--1--1--1--1--1--1--1--1--8--8--8--8--8--8--8--8--3--3--3--3--3--3--3--3--5--5--5--5--5--5--5--5--

4

G|--------------------------------------------------------------------------
D|--------------------------------------------------------------------------
A|--------------------------------------------------------------------------
E|--1--8--3--0--1--8--3--5--1--8--3--0--1--8--3--5--8--1--8--8--6--5--1--8--

5

G|-----------------------------------------------------------------------------------
D|-----------------------------------------------------------------------------------
A|-----------------------------------------------------------------------------------
E|--1--1--8--8--3--3--5--5--5--1--1--8--8--3--3--5--5--5--1--1--8--8--3--3--5--5--5--

5c

G|-----------------------------
D|-----------------------------
A|-----------------------------
E|--1--1--8--8--3--3--0--0--0--

6

G|-----------------------------------------------------------------------------------
D|-----------------------------------------------------------------------------------
A|-----------------------------------------------------------------------------------
E|--1--1--8--8--3--3--5--5--5--1--1--8--8--3--3--5--5--5--1--1--8--8--3--3--5--5--5--

6c

G|-----------------------------
D|-----------------------------
A|-----------------------------
E|--1--1--8--8--3--3--5--5--5--

7

G|--------------------------
D|--------------------------
A|--------------------------
E|--1--8--3--0--1--8--3--5--

8

G|--------------------------------------------------------------------------------
D|--------------------------------------------------------------------------------
A|--------------------------------------------------------------------------------
E|--1--8--3--5--1--8--3--5--1--1--8--8--3--3--5--5--5--1--1--8--8--3--3--0--0--0--

8c

G|-----------------------------------------------------------------------------------
D|-----------------------------------------------------------------------------------
A|-----------------------------------------------------------------------------------
E|--1--1--8--8--3--3--5--5--5--1--1--8--8--3--3--5--5--5--1--1--8--8--3--3--5--5--5--

8c

G|--
D|--
A|--
E|--

http://www.guitartabcreator.com
Guitar Tab Creator is intended to store guitar tab created through the tool. It currently does not support in-line text editing. Any text you place in here will be lost. If you need to comment on your tab, please use the "Tab Notes" section located below.