the sea rhyth

01234567891011121314151617181920212223
E
B
G
D
A
E
B
0 1 2 3 4 5 6 7 8 9 10 11 12 13 14 15 16 17 18 19 20 21 22 23
(/) Slide Up  (\) Slide Down  (h) Hammer On  (p) Pull Off  (b) Bend (r) Release (v) Vibrato

Stave 1:

Db|----------------------------|---------------------------------------------------|--------------------------|--------------------------|--------------|--------
Ab|------------------------11--|---------------------------------------------------|--------------------------|--------------------------|--------------|--------
E |-----------------8--10--10--|-----------------------8--10--8--------------------|-----------------5--3--2--|--------------------------|-----5--3--2--|--------
B |----------------------------|---------------------------------------------------|--------------------------|--------------------------|--------------|--------
Gb|--1--0--3--1--0--6--8---8---|--1-----0--3--1--0--0--6--8---6-----5--6--5--------|--1--0--3--1--0--3--1--1--|--------------------------|--0--3--1--1--|--------
B |--1--0--3--1--0-------------|--1-----0--3--1--0--0------------0-----------8--5--|--1--0--3--1--0-----------|--------------------------|--0-----------|--------

Stave 2:

Db|----------------------------|--------------
Ab|------------------------11--|--------------
E |-----------------8--10--10--|-----5--3--2--
B |----------------------------|--------------
Gb|--1--0--3--1--0--6--8---8---|--0--3--1--1--
B |--1--0--3--1--0-------------|--0-----------

Stave 3:

Db|-----------------------|-----------------------|--------------1--0--0--0--
Ab|-----------------------|-----------------------|--------------3--3--1--3--
E |--3--2--------3--2--5--|--3--2--------3--2--5--|--3--2--------2--2--2--2--
B |-----------------------|-----------------------|--------------------0--3--
Gb|--1--1--0--0--1--1--3--|--1--1--0--0--1--1--3--|--1--1--0--0--------------
B |--------0--0-----------|--------0--0-----------|--------0--0--------------

Stave 4:

Db|-----------------1--0--1--|-----------------1--0--0-----|-----------------1--0--1--|-----------------1--0--0-----|-----
Ab|-----------6--5--3--3--3--|-----------6--5--3--3--3-----|-----------6--5--3--3--3--|-----------6--5--3--3--3-----|-----
E |-----2--7--7--7--2--2--2--|-----2--7--7--7--2--2--2-----|-----2--7--7--7--2--2--2--|-----2--7--7--7--2--2--2-----|-----
B |-----3--------------------|-----3-----------------------|-----3--------------------|-----3-----------------------|-----
Gb|--0--1--5-----------------|--0--1--5--------------------|--0--1--5-----------------|--0--1--5--------------------|-----
B |--0-----0-----------------|--0-----0--------------------|--0-----0-----------------|--0-----0--------------------|-----

Stave 5:

Db|-----------------
Ab|-----------------
E |-----4-----4--4--
B |--2--2--2--2--2--
Gb|--2--3--2--3--0--
B |--0-----0--------

Stave 6:

Db|---------------------------------------------------------|------------------------------------------------------------|---------------------------------------|--
Ab|---------------------------------------------------------|------------------------------------------------------------|---------------------------------------|--
E |---------------------------------------------------------|------------------------------------------------------------|---------------------------------------|--
B |---------------------------------------------------------|------------------------------------------------------------|---------------------------------------|--
Gb|--------------------------------------------------10--7--|------------------------------------------------------------|---------------------------------------|--
B |--0--10--12--0--13--12--8--7--5--7--0--10--12--0--8---5--|--0--12--10--12--0--13--12--15--13--0--12--10--12--0--3--1--|--0--10--8--0--5--8--7--5--1--1--1--1--|--

Stave 7:

Db|-----
Ab|-----
E |-----
B |-----
Gb|-----
B |-----

Stave 8:

Db|-----3--|---------------------------------------|---------------------------------------|---------------------------------------|----------------------------------------|-----------------
Ab|--------|---------------------------------------|--------------------------------12-----|---------------------------------------|--------------------------------12--10--|-----------------
E |--------|---------------------------------------|--------------------------------9------|---------------------------------------|--------------------------------9---9---|-----------------
B |--2-----|---------------------------------------|--------------------------------10-----|---------------------------------------|--------------------------------10--10--|-----------------
Gb|--2-----|--3--2--3--2--3--5--6--5--3--2--10--7--|--3--2--3--2--3--5--6--5--3--2---------|--3--2--3--2--3--5--6--5--3--2--10--7--|--3--2--3--2--3--5--6--5--3--2----------|-----------------
B |--0-----|--1--0--1--0--1--3--4--3--1--0--8---5--|--1--0--1--0--1--3--4--3--1--0---------|--1--0--1--0--1--3--4--3--1--0--8---5--|--1--0--1--0--1--3--4--3--1--0----------|-----------------

Stave 9:

Db|------------------------------------------|---------------------------------------------|--------------------------------------------|-----------
Ab|------------------------------------------|---------------------------------------------|--------------------------------------------|-----------
E |------------------------------------------|---------------------------------------------|-----------------------------------5--3--2--|-----------
B |------------------------------------------|---------------------------------------------|--------------------------------------------|-----------
Gb|--0--1--0--0--7--1--0--1--0--0--10--8--7--|--1--0--1--0--0--7--1--0--1--0--0--10--8--7--|--1--0--1--0--0--7--1--0--1--0--0--3--1--1--|-----------
B |--0--1--0--0--8--1--0--1--0--0--8---7--7--|--1--0--1--0--0--8--1--0--1--0--0--8---7--7--|--1--0--1--0--0--8--1--0--1--0--0-----------|-----------

Stave 10:

Db|-----------------------------------------
Ab|-----------------------------------------
E |--------3--2--5--3--------------5--8--7--
B |-----------------------------------------
Gb|--0--0--1--1--3--1--0--0--0--0--3--6--5--
B |--0--0--------------0--0--0--0-----------

Stave 11:

Db|--------------------|-------------------------------|-----------------------------------
Ab|--------6-----------|-----------6-------------------|--------6--------------------------
E |--------7-----------|-----------7-------------------|--------7--------------------------
B |--------8-----7--7--|-----------8-----7--10--10-----|--------8-----7--3--5--------------
Gb|--0--0-----0--5--5--|-----0--0-----0--5--8---10-----|--0--0-----0--5--1--3--------------
B |--0--0-----0--5--5--|-----0--0-----0--5--8---0------|--0--0-----0--5--1--3--------------

							http://www.guitartabcreator.com
Chords

Tab Notes
Stave 5,6,7 -> B-Standart
Instruments
{"strings":[[[".",".",".",".",".",".",".",".","|",".",".",".",".",".",".","_",".",".",".",".",".",".",".",".",".","|",".",".",".",".",".",".",".",".","|",".",".",".",".",".",".",".",".","|",".",".",".",".","|",".","."],[".",".",".",".",".",".",".",11,"|",".",".",".",".",".",".","_",".",".",".",".",".",".",".",".",".","|",".",".",".",".",".",".",".",".","|",".",".",".",".",".",".",".",".","|",".",".",".",".","|",".","."],[".",".",".",".",".",8,10,10,"|",".",".",".",".",".",".","_",8,10,8,".",".",".",".",".",".","|",".",".",".",".",".",5,3,2,"|",".",".",".",".",".",".",".",".","|",".",5,3,2,"|",".","."],[".",".",".",".",".",".",".",".","|",".",".",".",".",".",".","_",".",".",".",".",".",".",".",".",".","|",".",".",".",".",".",".",".",".","|",".",".",".",".",".",".",".",".","|",".",".",".",".","|",".","."],[1,0,3,1,0,6,8,8,"|",1,".",0,3,1,0,0,6,8,6,".",5,6,5,".",".","|",1,0,3,1,0,3,1,1,"|",".",".",".",".",".",".",".",".","|",0,3,1,1,"|",".","."],[1,0,3,1,0,".",".",".","|",1,".",0,3,1,0,0,".",".",".",0,".",".",".",8,5,"|",1,0,3,1,0,".",".",".","|",".",".",".",".",".",".",".",".","|",0,".",".",".","|",".","."]],[[".",".",".",".",".",".",".",".","|",".",".",".","."],[".",".",".",".",".",".",".",11,"|",".",".",".","."],[".",".",".",".",".",8,10,10,"|",".",5,3,2],[".",".",".",".",".",".",".",".","|",".",".",".","."],[1,0,3,1,0,6,8,8,"|",0,3,1,1],[1,0,3,1,0,".",".",".","|",0,".",".","."]],[[".",".",".",".",".",".",".","|",".",".",".",".",".",".",".","|",".",".",".",".",1,0,0,0],[".",".",".",".",".",".",".","|",".",".",".",".",".",".",".","|",".",".",".",".",3,3,1,3],[3,2,".",".",3,2,5,"|",3,2,".",".",3,2,5,"|",3,2,".",".",2,2,2,2],[".",".",".",".",".",".",".","|",".",".",".",".",".",".",".","|",".",".",".",".",".",".",0,3],[1,1,0,0,1,1,3,"|",1,1,0,0,1,1,3,"|",1,1,0,0,".",".",".","."],[".",".",0,0,".",".",".","|",".",".",0,0,".",".",".","|",".",".",0,0,".",".",".","."]],[[".",".",".",".",".",1,0,1,"|",".",".",".",".",".",1,0,0,".","|",".",".",".",".",".",1,0,1,"|",".",".",".",".",".",1,0,0,".","|","."],[".",".",".",6,5,3,3,3,"|",".",".",".",6,5,3,3,3,".","|",".",".",".",6,5,3,3,3,"|",".",".",".",6,5,3,3,3,".","|","."],[".",2,7,7,7,2,2,2,"|",".",2,7,7,7,2,2,2,".","|",".",2,7,7,7,2,2,2,"|",".",2,7,7,7,2,2,2,".","|","."],[".",3,".",".",".",".",".",".","|",".",3,".",".",".",".",".",".",".","|",".",3,".",".",".",".",".",".","|",".",3,".",".",".",".",".",".",".","|","."],[0,1,5,".",".",".",".",".","|",0,1,5,".",".",".",".",".",".","|",0,1,5,".",".",".",".",".","|",0,1,5,".",".",".",".",".",".","|","."],[0,".",0,".",".",".",".",".","|",0,".",0,".",".",".",".",".",".","|",0,".",0,".",".",".",".",".","|",0,".",0,".",".",".",".",".",".","|","."]],[[".",".",".",".","."],[".",".",".",".","."],[".",4,".",4,4],[2,2,2,2,2],[2,3,2,3,0],[0,".",0,".","."]],[[".",".",".",".",".",".",".",".",".",".",".",".",".",".",".",".","|",".",".",".",".",".",".",".",".",".",".",".",".",".",".",".",".","|",".",".",".",".",".",".",".",".",".",".",".",".","|"],[".",".",".",".",".",".",".",".",".",".",".",".",".",".",".",".","|",".",".",".",".",".",".",".",".",".",".",".",".",".",".",".",".","|",".",".",".",".",".",".",".",".",".",".",".",".","|"],[".",".",".",".",".",".",".",".",".",".",".",".",".",".",".",".","|",".",".",".",".",".",".",".",".",".",".",".",".",".",".",".",".","|",".",".",".",".",".",".",".",".",".",".",".",".","|"],[".",".",".",".",".",".",".",".",".",".",".",".",".",".",".",".","|",".",".",".",".",".",".",".",".",".",".",".",".",".",".",".",".","|",".",".",".",".",".",".",".",".",".",".",".",".","|"],[".",".",".",".",".",".",".",".",".",".",".",".",".",".",10,7,"|",".",".",".",".",".",".",".",".",".",".",".",".",".",".",".",".","|",".",".",".",".",".",".",".",".",".",".",".",".","|"],[0,10,12,0,13,12,8,7,5,7,0,10,12,0,8,5,"|",0,12,10,12,0,13,12,15,13,0,12,10,12,0,3,1,"|",0,10,8,0,5,8,7,5,1,1,1,1,"|"]],[["_"],["_"],["_"],["_"],["_"],["_"]],[[".",3,"|",".",".",".",".",".",".",".",".",".",".",".",".","|",".",".",".",".",".",".",".",".",".",".",".",".","|",".",".",".",".",".",".",".",".",".",".",".",".","|",".",".",".",".",".",".",".",".",".",".",".",".","|",".",".",".",".","."],[".",".","|",".",".",".",".",".",".",".",".",".",".",".",".","|",".",".",".",".",".",".",".",".",".",".",12,".","|",".",".",".",".",".",".",".",".",".",".",".",".","|",".",".",".",".",".",".",".",".",".",".",12,10,"|",".",".",".",".","."],[".",".","|",".",".",".",".",".",".",".",".",".",".",".",".","|",".",".",".",".",".",".",".",".",".",".",9,".","|",".",".",".",".",".",".",".",".",".",".",".",".","|",".",".",".",".",".",".",".",".",".",".",9,9,"|",".",".",".",".","."],[2,".","|",".",".",".",".",".",".",".",".",".",".",".",".","|",".",".",".",".",".",".",".",".",".",".",10,".","|",".",".",".",".",".",".",".",".",".",".",".",".","|",".",".",".",".",".",".",".",".",".",".",10,10,"|",".",".",".",".","."],[2,".","|",3,2,3,2,3,5,6,5,3,2,10,7,"|",3,2,3,2,3,5,6,5,3,2,".",".","|",3,2,3,2,3,5,6,5,3,2,10,7,"|",3,2,3,2,3,5,6,5,3,2,".",".","|",".",".",".",".","."],[0,".","|",1,0,1,0,1,3,4,3,1,0,8,5,"|",1,0,1,0,1,3,4,3,1,0,".",".","|",1,0,1,0,1,3,4,3,1,0,8,5,"|",1,0,1,0,1,3,4,3,1,0,".",".","|",".",".",".",".","."]],[[".",".",".",".",".",".",".",".",".",".",".",".",".","|",".",".",".",".",".",".",".",".",".",".",".",".",".",".","|",".",".",".",".",".",".",".",".",".",".",".",".",".",".","|",".",".","."],[".",".",".",".",".",".",".",".",".",".",".",".",".","|",".",".",".",".",".",".",".",".",".",".",".",".",".",".","|",".",".",".",".",".",".",".",".",".",".",".",".",".",".","|",".",".","."],[".",".",".",".",".",".",".",".",".",".",".",".",".","|",".",".",".",".",".",".",".",".",".",".",".",".",".",".","|",".",".",".",".",".",".",".",".",".",".",".",5,3,2,"|",".",".","."],[".",".",".",".",".",".",".",".",".",".",".",".",".","|",".",".",".",".",".",".",".",".",".",".",".",".",".",".","|",".",".",".",".",".",".",".",".",".",".",".",".",".",".","|",".",".","."],[0,1,0,0,7,1,0,1,0,0,10,8,7,"|",1,0,1,0,0,7,1,0,1,0,0,10,8,7,"|",1,0,1,0,0,7,1,0,1,0,0,3,1,1,"|",".",".","."],[0,1,0,0,8,1,0,1,0,0,8,7,7,"|",1,0,1,0,0,8,1,0,1,0,0,8,7,7,"|",1,0,1,0,0,8,1,0,1,0,0,".",".",".","|",".",".","."]],[[".",".",".",".",".",".",".",".",".",".",".",".","."],[".",".",".",".",".",".",".",".",".",".",".",".","."],[".",".",3,2,5,3,".",".",".",".",5,8,7],[".",".",".",".",".",".",".",".",".",".",".",".","."],[0,0,1,1,3,1,0,0,0,0,3,6,5],[0,0,".",".",".",".",0,0,0,0,".",".","."]],[[".",".",".",".",".",".","|",".",".",".",".",".",".",".",".",".","|",".",".",".",".",".",".",".",".",".",".","."],[".",".",6,".",".",".","|",".",".",".",6,".",".",".",".",".","|",".",".",6,".",".",".",".",".",".",".","."],[".",".",7,".",".",".","|",".",".",".",7,".",".",".",".",".","|",".",".",7,".",".",".",".",".",".",".","."],[".",".",8,".",7,7,"|",".",".",".",8,".",7,10,10,".","|",".",".",8,".",7,3,5,".",".",".","."],[0,0,".",0,5,5,"|",".",0,0,".",0,5,8,10,".","|",0,0,".",0,5,1,3,".",".",".","."],[0,0,".",0,5,5,"|",".",0,0,".",0,5,8,0,".","|",0,0,".",0,5,1,3,".",".",".","."]]],"numberofstrings":6,"notes":["CsDb","GsAb","E","B","FsGb","B"],"capo":0,"stringnotes":["Db3","Ab2","E2","B1","Gb1","B0"],"comments":["Stave 1:","Stave 2:","Stave 3:","Stave 4:","Stave 5:","Stave 6:","Stave 7:","Stave 8:","Stave 9:","Stave 10:","Stave 11:"],"timing":[["W","W","W","W","W","W","W","W",null,"W","W",null,null,null,null,null,null,"W",null,"W","W","W","W","W","W","W",null,null,null,null,null,null,"W","W","W"],[],[null,"W","W","W","W",null,null,"W",null,null,null,null,null,null,null,null,null,null,null,null,null,"W","W","W","W"],[null,"W","W","W","W","W","W","W","W",null,null,null,null,null,null,null,null,null,"W"],[null,"W","W","W","W","W"],[null,"W","W","W","W","W","W","W","W","W","W","W","W","W","W","W","W",null,"W","W","W","W","W","W","W","W","W","W","W","W","W","W","W","W",null,"W","W","W","W","W","W","W","W","W","W","W","W"],[],[null,"W","W",null,"W","W","W","W","W","W","W","W","W","W","W","W",null,null,null,null,null,null,null,null,null,null,null,null,null,null,null,null,"W",null,null,null,null,null,null,null,null,null,null,null,null,null,null,null,null,null,null,null,null,null,null,null,null,null,null,null,"W"],[null,"W","W","W","W","W","W","W","W","W","W","W","W","W","W",null,null,null,null,null,null,null,null,null,null,null,null,null,null,null,null,null,null,null,null,null,null,null,null,null,null,null,null,null,null,null,null,null,"W"],[null,"W","W",null,null,null,"W","W","W","W","W","W","W","W"],[null,"W","W","W","W","W","W",null,null,null,null,null,null,null,null,null,"W",null,null,null,null,null,null,null,null,null,null,null,"W"]],"timingvisible":false,"tabcounter":28,"stave":10,"totalstaves":11,"instrument":"6guitar","selectedtuning":"Drop B","version":"13"}

Member for

3 months 1 week
Submitted by Gabor on Thu, 2021-02-18 10:35