the sea lead

01234567891011121314151617181920212223
E
B
G
D
A
E
B
0 1 2 3 4 5 6 7 8 9 10 11 12 13 14 15 16 17 18 19 20 21 22 23
(/) Slide Up  (\) Slide Down  (h) Hammer On  (p) Pull Off  (b) Bend (r) Release (v) Vibrato

Stave 1:

Db|-------------------------------------------------------------------------------------|-----------------------------
Ab|--------------------------------11---------------------------------------------------|-----------------------------
E |--15--14--17-----15--14--8--10--10-----15--14--------8--10--8--------19--17--14--10--|-----------------------------
B |-------------------------------------------------------------------------------------|-----------------------------
Gb|--13--12--15-----13--12--6--8---8------13--12--------6--8---6--------17--15--12--8---|-----------------------------
B |-----------------------------------------------0--0------------0--0------------------|-----------------------------

Stave 2:

Db|-----------------------------------------------------------------------------------|--------------------------|-----
Ab|-----------------------------------------------------------------------------------|--------------------------|-----
E |--15--14--17-----15--14--5--3--2-----15--14--------8--10--8--------19--17--14--10--|--------------------------|-----
B |-----------------------------------------------------------------------------------|--------------------------|-----
Gb|--13--12--15-----13--12--3--1--1-----13--12--------6--8---6--------17--15--12--8---|--------------------------|-----
B |---------------------------------------------0--0------------0--0------------------|--------------------------|-----

Stave 3:

Db|--------------------------------------------------------
Ab|--------------------------------11----------------------
E |--15--14--17-----15--14--8--10--10-----15--14--5--3--2--
B |--------------------------------------------------------
Gb|--13--12--15-----13--12--6--8---8------13--12--3--1--1--
B |--------------------------------------------------------

Stave 4:

Db|-----------------|-----------------------------------|--------------------------------
Ab|-----------------|-----------------------------------|--------------------------------
E |-----------------|-----------------------------------|-----------------------------7--
B |--7--3--2--3-----|-----------------------5--7--5--3--|--------------------5--7--5-----
Gb|-----------------|-----5--8-----5--8--7--------------|-----5--8-----5--8--7-----------
B |-----------------|--0--------0-----------------------|--0--------0--------------------

Stave 5:

Db|--------------------------|--
Ab|--------------------------|--
E |--------------------------|--
B |--------------------------|--
Gb|-----------------8--5-----|--
B |--0-----0--0--0--8--5-----|--

Stave 6:

Db|------------------------------------------------------------------------------------------------------------------------------------------|--|--
Ab|------------------------------------------------------------------------------------------------------------------------------------------|--|--
E |--7--10--9-----7--10--9--7--9--7--10--9--7--12--14--------7--10--9-----7--10--9--7--9--7--10--9--7--15--14--------------------------------|--|--
B |--0--0---0-----0--0---0--0--0--0--0---0--0--0---0---------0--0---0-----0--0---0--0--0--0--0---0--0--0---0---------------------------------|--|--
Gb|------------------------------------------------------------------------------------------------------------------------------------------|--|--
B |------------------------------------------------------------------------------------------------------------------------------------------|--|--

Stave 7:

Db|--------------------------------|--------------------------------|-----------------------------
Ab|--------------------------------|--------------------------------|-----------------------------
E |-----------------10--9--12--14--|-----------------10--9--15--14--|--------------------5--3--2--
B |--7--3--2-----7-----------------|--7--3--2-----7-----------------|--7--3--5--2-----7-----------
Gb|--------------------------------|--------------------------------|-----------------------------
B |--------------------------------|--------------------------------|-----------------------------

Stave 8:

Db|------------------------------
Ab|------------------------------
E |--7--10--9--12--10-----7--15--
B |--0--0---0--0---0------0--0---
Gb|------------------------------
B |------------------------------

Stave 9:

Db|-----------------|--------------------------|------------------|------
Ab|-----------------|--------------------------|------------------|------
E |--2--3--2--2-----|--2--3--2--2--------------|--2--3--2--2--10--15--14--
B |--0--0--0--3-----|--0--0--0--3--2--3--2-----|--0--0--0--3--0---0---0---
Gb|-----------------|--------------------------|------------------|------
B |-----------------|--------------------------|------------------|------

							http://www.guitartabcreator.com
Chords

Instruments
{"strings":[[[".",".",".",".",".",".",".",".",".",".",".",".",".",".",".",".",".",".",".",".",".",".",".","|",".",".",".",".",".",".",".",".","."],[".",".",".",".",".",".",".",".",11,".",".",".",".",".",".",".",".",".",".",".",".",".",".","|",".",".",".",".",".",".",".",".","."],[15,14,17,".",15,14,8,10,10,".",15,14,".",".",8,10,8,".",".",19,17,14,10,"|",".",".",".",".",".",".",".",".","."],[".",".",".",".",".",".",".",".",".",".",".",".",".",".",".",".",".",".",".",".",".",".",".","|",".",".",".",".",".",".",".",".","."],[13,12,15,".",13,12,6,8,8,".",13,12,".",".",6,8,6,".",".",17,15,12,8,"|",".",".",".",".",".",".",".",".","."],[".",".",".",".",".",".",".",".",".",".",".",".",0,0,".",".",".",0,0,".",".",".",".","|",".",".",".",".",".",".",".",".","."]],[[".",".",".",".",".",".",".",".",".",".",".",".",".",".",".",".",".",".",".",".",".",".",".","|",".",".",".",".",".",".",".",".","|","."],[".",".",".",".",".",".",".",".",".",".",".",".",".",".",".",".",".",".",".",".",".",".",".","|",".",".",".",".",".",".",".",".","|","."],[15,14,17,".",15,14,5,3,2,".",15,14,".",".",8,10,8,".",".",19,17,14,10,"|",".",".",".",".",".",".",".",".","|","."],[".",".",".",".",".",".",".",".",".",".",".",".",".",".",".",".",".",".",".",".",".",".",".","|",".",".",".",".",".",".",".",".","|","."],[13,12,15,".",13,12,3,1,1,".",13,12,".",".",6,8,6,".",".",17,15,12,8,"|",".",".",".",".",".",".",".",".","|","."],[".",".",".",".",".",".",".",".",".",".",".",".",0,0,".",".",".",0,0,".",".",".",".","|",".",".",".",".",".",".",".",".","|","."]],[[".",".",".",".",".",".",".",".",".",".",".",".",".",".","."],[".",".",".",".",".",".",".",".",11,".",".",".",".",".","."],[15,14,17,".",15,14,8,10,10,".",15,14,5,3,2],[".",".",".",".",".",".",".",".",".",".",".",".",".",".","."],[13,12,15,".",13,12,6,8,8,".",13,12,3,1,1],[".",".",".",".",".",".",".",".",".",".",".",".",".",".","."]],[[".",".",".",".",".","|",".",".",".",".",".",".",".",".",".",".",".","|",".",".",".",".",".",".",".",".",".","."],[".",".",".",".",".","|",".",".",".",".",".",".",".",".",".",".",".","|",".",".",".",".",".",".",".",".",".","."],[".",".",".",".",".","|",".",".",".",".",".",".",".",".",".",".",".","|",".",".",".",".",".",".",".",".",".",7],[7,3,2,3,".","|",".",".",".",".",".",".",".",5,7,5,3,"|",".",".",".",".",".",".",5,7,5,"."],[".",".",".",".",".","|",".",5,8,".",5,8,7,".",".",".",".","|",".",5,8,".",5,8,7,".",".","."],[".",".",".",".",".","|",0,".",".",0,".",".",".",".",".",".",".","|",0,".",".",0,".",".",".",".",".","."]],[[".",".",".",".",".",".",".",".","|"],[".",".",".",".",".",".",".",".","|"],[".",".",".",".",".",".",".",".","|"],[".",".",".",".",".",".",".",".","|"],[".",".",".",".",".",8,5,".","|"],[0,".",0,0,0,8,5,".","|"]],[[".",".",".",".",".",".",".",".",".",".",".",".",".",".",".",".",".",".",".",".",".",".",".",".",".",".",".",".",".",".",".",".",".",".",".",".",".",".",".",".",".",".","|","|"],[".",".",".",".",".",".",".",".",".",".",".",".",".",".",".",".",".",".",".",".",".",".",".",".",".",".",".",".",".",".",".",".",".",".",".",".",".",".",".",".",".",".","|","|"],[7,10,9,".",7,10,9,7,9,7,10,9,7,12,14,".",".",7,10,9,".",7,10,9,7,9,7,10,9,7,15,14,".",".",".",".",".",".",".",".",".",".","|","|"],[0,0,0,".",0,0,0,0,0,0,0,0,0,0,0,".",".",0,0,0,".",0,0,0,0,0,0,0,0,0,0,0,".",".",".",".",".",".",".",".",".",".","|","|"],[".",".",".",".",".",".",".",".",".",".",".",".",".",".",".",".",".",".",".",".",".",".",".",".",".",".",".",".",".",".",".",".",".",".",".",".",".",".",".",".",".",".","|","|"],[".",".",".",".",".",".",".",".",".",".",".",".",".",".",".",".",".",".",".",".",".",".",".",".",".",".",".",".",".",".",".",".",".",".",".",".",".",".",".",".",".",".","|","|"]],[[".",".",".",".",".",".",".",".",".","|",".",".",".",".",".",".",".",".",".","|",".",".",".",".",".",".",".",".","."],[".",".",".",".",".",".",".",".",".","|",".",".",".",".",".",".",".",".",".","|",".",".",".",".",".",".",".",".","."],[".",".",".",".",".",10,9,12,14,"|",".",".",".",".",".",10,9,15,14,"|",".",".",".",".",".",".",5,3,2],[7,3,2,".",7,".",".",".",".","|",7,3,2,".",7,".",".",".",".","|",7,3,5,2,".",7,".",".","."],[".",".",".",".",".",".",".",".",".","|",".",".",".",".",".",".",".",".",".","|",".",".",".",".",".",".",".",".","."],[".",".",".",".",".",".",".",".",".","|",".",".",".",".",".",".",".",".",".","|",".",".",".",".",".",".",".",".","."]],[[".",".",".",".",".",".",".","."],[".",".",".",".",".",".",".","."],[7,10,9,12,10,".",7,15],[0,0,0,0,0,".",0,0],[".",".",".",".",".",".",".","."],[".",".",".",".",".",".",".","."]],[[".",".",".",".",".","|",".",".",".",".",".",".",".",".","|",".",".",".",".",".","|","."],[".",".",".",".",".","|",".",".",".",".",".",".",".",".","|",".",".",".",".",".","|","."],[2,3,2,2,".","|",2,3,2,2,".",".",".",".","|",2,3,2,2,10,15,14],[0,0,0,3,".","|",0,0,0,3,2,3,2,".","|",0,0,0,3,0,0,0],[".",".",".",".",".","|",".",".",".",".",".",".",".",".","|",".",".",".",".",".","|","."],[".",".",".",".",".","|",".",".",".",".",".",".",".",".","|",".",".",".",".",".","|","."]]],"numberofstrings":6,"notes":["CsDb","GsAb","E","B","FsGb","B"],"capo":0,"stringnotes":["Db3","Ab2","E2","B1","Gb1","B0"],"comments":["Stave 1:","Stave 2:","Stave 3:","Stave 4:","Stave 5:","Stave 6:","Stave 7:","Stave 8:","Stave 9:"],"timing":[[null,"W","W","W",null,"W","W",null,null,"W",null,null,null,null,"W","W","W","W","W","W","W","W"],[null,null,null,null,null,null,"W","W","W","W",null,null,null,null,null,null,null,null,null,null,null,null,null,null,null,null,null,null,null,null,null,null,null,"W"],[null,null,null,null,null,null,null,null,null,null,null,"W","W","W","W","W"],[null,"W","W","W","W",null,null,"W","W","W","W","W","W","W","W","W","W","W",null,"W","W","W","W","W","W","W","W","W","W"],[null,"W",null,"W","W","W","W","W"],[null,"W","W","W",null,"W","W","W","W","W","W","W","W","W","W","W",null,null,null,null,null,null,null,null,null,null,null,null,"W",null,null,null,null,null,null,null,null,null,null,null,null,null,null,null,"W"],[null,"W","W","W",null,"W","W","W","W","W",null,"W","W","W",null,"W","W","W","W","W",null,"W","W","W","W",null,"W","W","W","W"],[null,"W","W",null,"W","W",null,"W","W"],[null,"W","W","W","W",null,null,null,null,null,null,null,null,"W",null,null,null,null,null,null,null,null,"W"]],"timingvisible":false,"tabcounter":22,"stave":8,"totalstaves":9,"instrument":"6guitar","selectedtuning":"Drop B","version":"13"}

Member for

1 month 3 weeks
Submitted by Gabor on Tue, 2021-02-23 07:47