Sound will begin in 5 seconds

Shiawase

Chords
01234567891011121314151617181920212223
E
B
G
D
A
E
B
0 1 2 3 4 5 6 7 8 9 10 11 12 13 14 15 16 17 18 19 20 21 22 23
Song Science #1: How Pros Use 6 Chords to Write Hit Songs
(/) Slide Up  (\) Slide Down  (h) Hammer On  (p) Pull Off  (b) Bend (r) Release (v) Vibrato

Stave 1:

E|-------------------------------------------------------------13-------------------------------------------
B|--------------------------------------10--10--10--13b15--15------13b15r13--13p10----------10--------------
G|--------------10--10--10--12--10--12----------------------------------------------12--12------12--10------
D|--12--10--12------------------------------------------------------------------------------------------12--
A|----------------------------------------------------------------------------------------------------------
E|----------------------------------------------------------------------------------------------------------

Stave 2:

E|--------------------------------------------------------------------------------------------------------
B|--------------------------------------------------------------------------------------------------------
G|--10--10--10----------------------------------------------------------------------------------10h12p10--
D|--------------12--10------10--12--12--12--10----------------------10--------------10--10--12------------
A|----------------------12----------------------12--10------------------12--10--12------------------------
E|------------------------------------------------------13--13--13----------------------------------------

Stave 3:

E|--------------
B|--------------
G|--3--7--------
D|--3--7--5--3--
A|--1--5--5--3--
E|--------3--1--

Stave 4:

E|--------------
B|--------------
G|--8--7--5--3--
D|--8--7--5--3--
A|--6--5--3--1--
E|--------------

Stave 5:

E|--------------
B|--------------
G|--7--6--5-----
D|--7--6--5--3--
A|--5--4--3--3--
E|-----------1--

http://www.guitartabcreator.com
Guitar Tab Creator is intended to store guitar tab created through the tool. It currently does not support in-line text editing. Any text you place in here will be lost. If you need to comment on your tab, please use the "Tab Notes" section located below.