Rat Kings

Chords

01234567891011121314151617181920212223
E
B
G
D
A
E
B
0 1 2 3 4 5 6 7 8 9 10 11 12 13 14 15 16 17 18 19 20 21 22 23
(/) Slide Up  (\) Slide Down  (h) Hammer On  (p) Pull Off  (b) Bend (r) Release (v) Vibrato

(W|WW) Whole  (H|HH) Half  (Q|QQ) Quarter  (E|EE) 8th (S|SS) 16th  (T|TT) 32nd (X|XX) 64th

Stave 1:
t:  X  X     X     X  X     X     X     X  X     X     X  X  XX  X  XX  X  XX  X  X     X     X  XX  XX     XX     XX  X  X  X  X  X  X  X  X  X  X  
Db|--------|-----|--------|-----|-----|--------|-----|--------------------------------|-----|-------------|------|------------------------------------------------------
Ab|--------|-----|--------|-----|-----|--------|-----|--------------------------------|-----|-------------|------|------------------------------------------------------
E |--------|-----|--------|-----|-----|--------|-----|--------------------------------|-----|-------------|------|------------------------------------------------------
B |--------|-----|--------|-----|-----|--------|-----|------------9--10--9------------|-----|-------------|------|------------------------------------------------------
Gb|--7--7--|--7--|--7--7--|--7--|--7--|--------|-----|-----7--10------------10--------|-----|-----10--10--|--10--|--10-----------------------------------5--5-----5-----
Db|--------|-----|--------|-----|-----|--8--8--|--8--|--8-----------------------7--7--|--7--|--7----------|------|------3--3-----3-----3--3-----3-----3-----------------

Stave 2:
t:  X  X  X  X  X  
Db|-----------------------------
Ab|-----------------------------
E |-----------------------------
B |-----------------------------
Gb|-----6--6-----6--------------
Db|--7-----------------7--------

Stave 3:
t:  X  X  X  X  X  X  X  X  X  X  X  X  X  X  X  X  X  X  X  X  X  X  XX  XX  X  X  X  X  X  X  X  X  X  X  X  X  X  X  X  X  X  X  X  X  X  X  X  X  X  X  X  
Db|-------------------------------------------------------------------------------------------------------------------------------------------------------------
Ab|-------------------------------------------------------------------------------------------------------------------------------------------------------------
E |----------------------------------------------------------------------------------------------------------------9--9--9--9--9--9--9--9--9--9-----------------
B |--------------------------------------9--9--9--9--9--9--9--9--9--9--10--10--------------------------------------------------------------------9--9--9--9--9--
Gb|--7--7--7--7--7--7--7--7--7--7--7--7-------------------------------------------------------------------------------------------------------------------------
Db|----------------------------------------------------------------------------7--7--7--7--7--7--7--7--7--7--7--7-----------------------------------------------

Stave 4:
t:  X  X  X  XX  XX  XX  XX  XX  XX  XX  XX  XX  XX  XX  XX  XX  
Db|---------------------------------------------------------------
Ab|---------------------------------------------------------------
E |-----------16--16--16--16--16--16--16--16--16--16--16--16--16--
B |--9--9--9------------------------------------------------------
Gb|---------------------------------------------------------------
Db|---------------------------------------------------------------

Stave 5:
t:  X  X  X  X  X  X  X  
Db|--------------------------
Ab|--------------------------
E |--------------------------
B |--------------------------
Gb|--7--7--7--7--7--7--7-----
Db|--------------------------

							http://www.guitartabcreator.com
Instruments
{"strings":[[[".",".","|",".","|",".",".","|",".","|",".","|",".",".","|",".","|",".",".",".",".",".",".",".",".",".","|",".","|",".",".",".","|",".","|",".",".",".","_",".","_",".",".","_",".","_",".",".",".","_",".","_"],[".",".","|",".","|",".",".","|",".","|",".","|",".",".","|",".","|",".",".",".",".",".",".",".",".",".","|",".","|",".",".",".","|",".","|",".",".",".","_",".","_",".",".","_",".","_",".",".",".","_",".","_"],[".",".","|",".","|",".",".","|",".","|",".","|",".",".","|",".","|",".",".",".",".",".",".",".",".",".","|",".","|",".",".",".","|",".","|",".",".",".","_",".","_",".",".","_",".","_",".",".",".","_",".","_"],[".",".","|",".","|",".",".","|",".","|",".","|",".",".","|",".","|",".",".",".",9,10,9,".",".",".","|",".","|",".",".",".","|",".","|",".",".",".","_",".","_",".",".","_",".","_",".",".",".","_",".","_"],[7,7,"|",7,"|",7,7,"|",7,"|",7,"|",".",".","|",".","|",".",7,10,".",".",".",10,".",".","|",".","|",".",10,10,"|",10,"|",10,".",".","_",".","_",".",".","_",".","_",".",5,5,"_",5,"_"],[".",".","|",".","|",".",".","|",".","|",".","|",8,8,"|",8,"|",8,".",".",".",".",".",".",7,7,"|",7,"|",7,".",".","|",".","|",".",3,3,"_",3,"_",3,3,"_",3,"_",3,".",".","_",".","_"]],[[".",".",".","_",".","_",".","_","_"],[".",".",".","_",".","_",".","_","_"],[".",".",".","_",".","_",".","_","_"],[".",".",".","_",".","_",".","_","_"],[".",6,6,"_",6,"_",".","_","_"],[7,".",".","_",".","_",7,"_","_"]],[[".",".",".",".",".",".",".",".",".",".",".",".",".",".",".",".",".",".",".",".",".",".",".",".",".",".",".",".",".",".",".",".",".",".",".",".",".",".",".",".",".",".",".",".",".",".",".",".",".",".","."],[".",".",".",".",".",".",".",".",".",".",".",".",".",".",".",".",".",".",".",".",".",".",".",".",".",".",".",".",".",".",".",".",".",".",".",".",".",".",".",".",".",".",".",".",".",".",".",".",".",".","."],[".",".",".",".",".",".",".",".",".",".",".",".",".",".",".",".",".",".",".",".",".",".",".",".",".",".",".",".",".",".",".",".",".",".",".",".",9,9,9,9,9,9,9,9,9,9,".",".",".",".","."],[".",".",".",".",".",".",".",".",".",".",".",".",9,9,9,9,9,9,9,9,9,9,10,10,".",".",".",".",".",".",".",".",".",".",".",".",".",".",".",".",".",".",".",".",".",".",9,9,9,9,9],[7,7,7,7,7,7,7,7,7,7,7,7,".",".",".",".",".",".",".",".",".",".",".",".",".",".",".",".",".",".",".",".",".",".",".",".",".",".",".",".",".",".",".",".",".",".",".",".",".",".","."],[".",".",".",".",".",".",".",".",".",".",".",".",".",".",".",".",".",".",".",".",".",".",".",".",7,7,7,7,7,7,7,7,7,7,7,7,".",".",".",".",".",".",".",".",".",".",".",".",".",".","."]],[[".",".",".",".",".",".",".",".",".",".",".",".",".",".",".","."],[".",".",".",".",".",".",".",".",".",".",".",".",".",".",".","."],[".",".",".",16,16,16,16,16,16,16,16,16,16,16,16,16],[9,9,9,".",".",".",".",".",".",".",".",".",".",".",".","."],[".",".",".",".",".",".",".",".",".",".",".",".",".",".",".","."],[".",".",".",".",".",".",".",".",".",".",".",".",".",".",".","."]],[[".",".",".",".",".",".",".","_"],[".",".",".",".",".",".",".","_"],[".",".",".",".",".",".",".","_"],[".",".",".",".",".",".",".","_"],[7,7,7,7,7,7,7,"_"],[".",".",".",".",".",".",".","_"]]],"numberofstrings":6,"notes":["CsDb","GsAb","E","B","FsGb","CsDb"],"capo":0,"stringnotes":["Db3","Ab2","E2","B1","Gb1","Db1"],"comments":["Stave 1:","Stave 2:","Stave 3:","Stave 4:","Stave 5:"],"timing":[["X","X",null,"X",null,"X","X",null,"X",null,"X",null,"X","X",null,"X",null,"X","X","X","X","X","X","X","X","X",null,"X",null,"X","X","X",null,"X",null,"X","X","X",null,"X",null,"X","X",null,"X",null,"X","X","X",null,"X","W"],["X","X","X",null,"X",null,"X","W","W"],["X","X","X","X","X","X","X","X","X","X","X","X","X","X","X","X","X","X","X","X","X","X","X","X","X","X","X","X","X","X","X","X","X","X","X","X","X","X","X","X","X","X","X","X","X","X","X","X","X","X","X"],["X","X","X","X","X","X","X","X","X","X","X","X","X","X","X","X","X","X","X","X","X"],["X","X","X","X","X","X","X","W"]],"timingvisible":true,"tabcounter":8,"stave":4,"totalstaves":5,"instrument":"6guitar","selectedtuning":"C# Tuning","version":"13"}

Member for

3 days 16 hours
Submitted by g1zmodo on Fri, 2020-07-31 13:26