Sound will begin in 5 seconds

Eruption by Van Halen

Chords
01234567891011121314151617181920212223
E
B
G
D
A
E
B
0 1 2 3 4 5 6 7 8 9 10 11 12 13 14 15 16 17 18 19 20 21 22 23
(/) Slide Up  (\) Slide Down  (h) Hammer On  (p) Pull Off  (b) Bend (r) Release (v) Vibrato

Stave 1:

E|---------------------------------------------5--0-----------0-----------0-----------0-----------
B|------------------------------------------5--------8--5--0-----8--5--0-----8--5--0-----8--5--0--
G|--2---------------------5--7--7b9b7p5-----------------------------------------------------------
D|--2---------------5--7--------------------------------------------------------------------------
A|--0--------/7-----------------------------------------------------------------------------------
E|------------------------------------------------------------------------------------------------

Stave 2:

E|--0-------------------------------------------------------------------------------------
B|----------------------------------------------------------------------------------------
G|--------4-----5--7--5h7p5p4-----4h7p5p4-----4h7p5p4-----4h7p5p4-------------------------
D|-----------------------------7-----------7-----------7-----------7--6--5----------------
A|--------------------------------------------------------------------------7--6--5--3b0--
E|----------------------------------------------------------------------------------------

Stave 3:

E|--0-----------2-----------2--
B|--2-----------0-----------3--
G|--2-----------0-----------2--
D|--2-----------0-----------0--
A|--0-----------2--------------
E|--------------3--------------

Stave 4:

E|-----------17---------17---------17---------17------------17------17--20--21--17--20--17-------------
B|--3/20b22------20b22------20b22------20b22------20b22---------22--------------------------20--20b22--
G|-----------------------------------------------------------------------------------------------------
D|-----------------------------------------------------------------------------------------------------
A|-----------------------------------------------------------------------------------------------------
E|-----------------------------------------------------------------------------------------------------

Stave 5:

E|--17------17--20b22b20p17------17------------------------------------------------------------
B|------20-------------------20------20b22b20p17------20b22b20p17------20b22b20p17------20b22--
G|------------------------------------------------19---------------19---------------19---------
D|---------------------------------------------------------------------------------------------
A|---------------------------------------------------------------------------------------------
E|---------------------------------------------------------------------------------------------

http://www.guitartabcreator.com
Guitar Tab Creator is intended to store guitar tab created through the tool. It currently does not support in-line text editing. Any text you place in here will be lost. If you need to comment on your tab, please use the "Tab Notes" section located below.