Sound will begin in 5 seconds

Waltz Of The Damned

Chords
01234567891011121314151617181920212223
E
B
G
D
A
E
B
0 1 2 3 4 5 6 7 8 9 10 11 12 13 14 15 16 17 18 19 20 21 22 23
Song Science #1: How Pros Use 6 Chords to Write Hit Songs
(/) Slide Up  (\) Slide Down  (h) Hammer On  (p) Pull Off  (b) Bend (r) Release (v) Vibrato

(W|WW) Whole (H|HH) Half (Q|QQ) Quarter (E|EE) 8th (S|SS) 16th (T|TT) 32nd (X|XX) 64th

Stave 1:
t: Q Q Q Q Q Q Q Q Q Q Q Q
E|--1--------|-----------|-----------|-----------|--|--
B|--3--------|-----------|-----------|-----------|--|--
G|-----------|-----------|-----0-----|-----------|--|--
D|--0-----0--|--------0--|--------2--|-----3--0--|--|--
G|-----2-----|-----2-----|-----------|-----------|--|--
D|--0--------|--0--------|--0--------|--0--------|--|--

Stave 2:
t: E E E E E E Q Q Q Q Q Q Q E E Q
E|--------------------|-----------|-----------|--------------|--|--
B|--------------------|-----------|-----------|--------------|--|--
G|-----2--0--2--3--0--|-----2-----|-----0-----|--------------|--|--
D|--------------------|--------3--|--------2--|-----3--2--0--|--|--
G|--------------------|-----------|-----------|--------------|--|--
D|--0-----------------|--0--------|--0--------|--0-----------|--|--

Stave 3:
t: E E E E Q Q Q Q Q Q Q Q E E Q E E E E Q Q Q Q Q Q Q Q E E Q
E|-----------------|-----------|-----------|--------------|-----------------|-----------|-----------|--------------|--|--
B|-----------------|-----------|-----------|--------------|-----------------|-----1-----|-----------|--------------|--|--
G|-----2--0--2--3--|-----2--0--|-----2-----|--------------|-----2--0--2--3--|--------3--|-----2--0--|-----2--0-----|--|--
D|-----------------|-----------|--------3--|-----3--2--0--|-----------------|-----------|-----------|-----------3--|--|--
G|-----------------|-----------|-----------|--------------|-----------------|-----------|-----------|--------------|--|--
D|--1--------------|--1--------|--0--------|--0-----------|--1--------------|--1--------|--3--------|--3-----------|--|--

Stave 4:
t: Q Q Q Q Q Q Q Q Q Q Q Q
E|-----------|-----------|-----------|--------------|--|--
B|-----------|-----------|-----1-----|--------------|--|--
G|--------0--|--------0--|--------2--|-----3--0-----|--|--
D|-----0-----|-----0-----|-----------|--------------|--|--
G|--0--------|--0--------|--0--------|--0-----------|--|--
D|-----------|-----------|-----------|--------------|--|--

Stave 5:
t: E E E E E E Q Q Q Q Q Q Q E E Q
E|--------------------|-----------|-----------|--------------|--|--
B|-----3--1--3--4--1--|-----3-----|-----1-----|--------------|--|--
G|--------------------|--------3--|--------2--|-----3--2--0--|--|--
D|--------------------|-----------|-----------|--------------|--|--
G|--0-----------------|--0--------|--0--------|--0-----------|--|--
D|--------------------|-----------|-----------|--------------|--|--

Stave 6:
t: E E E E E E E E Q E E Q E E E E E E E E Q
E|--------------------|-----------------|-----------------|-----------------|--|--
B|--------------------|--------3--------|-----------------|-----------------|--|--
G|--------------0--2--|--3--5-----5--3--|--5-----3--2--3--|--2--0-----------|--|--
D|--4--0--2--4--------|-----------------|-----------------|--------4--2--0--|--|--
G|--------------------|-----------------|-----------------|-----------------|--|--
D|--0-----------------|-----------------|-----0-----------|--0--------------|--|--

Stave 7:
t: E E E E E E E E Q E E Q E E E E E E E E E E
E|--------------------|-----------------|-----------------|-----------------2--|--|--
B|--------------------|--------3--------|-----------------|-----------3--5-----|--|--
G|--------------0--2--|--3--5-----5--3--|--5-----3--2--3--|--2--3--5-----------|--|--
D|--4--0--2--4--------|-----------------|-----------------|--------------------|--|--
G|--------------------|-----------------|-----------------|--------------------|--|--
D|--0-----------------|-----------------|-----0-----------|--0-----------------|--|--

Stave 8:
t: E E E E E E Q Q Q E E E E E E Q Q Q E E E E E E E E E E E E E E E E E E
E|--------------0--1--|--0--------|-----1--0-----0-----|-----------|-----1--0-----0-----|-----1--0-----0-----|-----1--0-----0-----|--|--
B|-----0--2--3--------|-----3-----|-----------3-----2--|--3--------|-----------3-----2--|-----------3-----2--|-----------3-----2--|--|--
G|--2-----------------|-----------|--------------------|-----------|--------------------|--------------------|--------------------|--|--
D|--------------------|-----0--0--|--------------------|-----0--0--|--------------------|--------------------|--------------------|--|--
G|--2-----------------|--0--------|--0-----------------|--0--------|--0-----------------|--0-----------------|--0-----------------|--|--
D|--------------------|-----------|--------------------|-----------|--------------------|--------------------|--------------------|--|--

Stave 9:
t: Q Q Q Q Q Q Q Q Q Q Q Q Q Q Q Q Q Q Q Q Q Q Q Q Q Q Q Q Q Q QQ H
E|-----------|-----------|-----------|-----------|-----------|-----------|-----------|-----------|-----------|-----5-----|--10-----|--|--
B|--3--------|-----------|-----------|-----------|-----------|-----------|-----8--5--|-----6-----|-----6-----|--6-----6--|--10-----|--|--
G|-----------|-----------|-----0-----|-----------|-----------|-----------|-----------|--------7--|--------7--|-----------|--10-----|--|--
D|--------0--|--------0--|--------2--|-----3--0--|--------0--|--------0--|-----------|-----------|-----------|-----------|---------|--|--
G|-----2-----|-----2-----|-----------|-----------|-----2-----|-----2-----|-----------|-----------|-----------|-----------|---------|--|--
D|--0--------|--0--------|--0--------|--0--------|--0--------|--0--------|--0--------|--0--------|--0--------|-----------|------0--|--|--

http://www.guitartabcreator.com
Guitar Tab Creator is intended to store guitar tab created through the tool. It currently does not support in-line text editing. Any text you place in here will be lost. If you need to comment on your tab, please use the "Tab Notes" section located below.