Sound will begin in 5 seconds

1stes kleines Riff + Solo

01234567891011121314151617181920212223
E
B
G
D
A
E
B
0 1 2 3 4 5 6 7 8 9 10 11 12 13 14 15 16 17 18 19 20 21 22 23
Song Science #1: How Pros Use 6 Chords to Write Hit Songs
(/) Slide Up  (\) Slide Down  (h) Hammer On  (p) Pull Off  (b) Bend (r) Release (v) Vibrato

Stave 1:

B |-------------------------------------------------------------------
Gb|--10--7-----8--7-----8--7--------------10--7-----8--7-----8--7-----
D |---------7--------7--------7------------------7--------7--------9--
A |-------------------------------------------------------------------
E |-------------------------------------------------------------------
B |-------------------------------------------------------------------

Stave 2:

B |------------------------------------------------------------------
Gb|--10--7-----8--7-----8--7--------------10p7-----8--7--------------
D |---------7--------7--------7-----------------7--------9--7--------
A |------------------------------------------------------------9--7--
E |------------------------------------------------------------------
B |------------------------------------------------------------------

Stave 3:

B |-----------------------------------------------------------------
Gb|-----------------7--7--------------------------------------7-----
D |--------7--9--7--------9--7-----------------7--9--7--9--9-----9--
A |--7--9--------------------------------7--9-----------------------
E |-----------------------------------------------------------------
B |-----------------------------------------------------------------

Stave 4:

B |-------------------------------------------------------------------------
Gb|-----------------7--7--------------------------------10--10--8--8--7-----
D |--------7--9--7--------9--7-----------------7--9--7-------------------7--
A |--7--9--------------------------------7--9-------------------------------
E |-------------------------------------------------------------------------
B |-------------------------------------------------------------------------

Stave 5:

B |--------------------------------------------------
Gb|---------------------------------------7--9--10v--
D |--9--7-----------------------7--9--10-------------
A |--------9--7-----------7--9-----------------------
E |--------------------------------------------------
B |--------------------------------------------------

Stave 6:

B |----------------------------------------------------------
Gb|--10p7-----8p7-----10p7-----8p7-----10p7-----8p7-----10v--
D |--------7-------7--------7-------7--------7-------7-------
A |----------------------------------------------------------
E |----------------------------------------------------------
B |----------------------------------------------------------

Stave 7:

B |-------------------------------------------------------------------------
Gb|--13p10------11p10------13p10------11p10------13p10------11p10------13v--
D |---------10---------10---------10---------10---------10---------10-------
A |-------------------------------------------------------------------------
E |-------------------------------------------------------------------------
B |-------------------------------------------------------------------------

Stave 8:

B |-------------------------------------------------------------------------
Gb|--16p13------15p13------16p13------15p13------16p13------15p13------16v--
D |---------13---------13---------13---------13---------13---------13-------
A |-------------------------------------------------------------------------
E |-------------------------------------------------------------------------
B |-------------------------------------------------------------------------

Stave 9:

B |--16p12------14p12------16p12------14p12------16p12------14p12------16v--
Gb|---------12---------12---------12---------12---------12---------12-------
D |-------------------------------------------------------------------------
A |-------------------------------------------------------------------------
E |-------------------------------------------------------------------------
B |-------------------------------------------------------------------------

Stave 10:

B |--19b21--19b21--19b21-----19--17------17------------------------------------------
Gb|----------------------------------19------19--17--19--17--15--17--15--14--15--14--
D |----------------------------------------------------------------------------------
A |----------------------------------------------------------------------------------
E |----------------------------------------------------------------------------------
B |----------------------------------------------------------------------------------

Stave 11:

B |--------------------------------------------------------------------------------
Gb|--12--14--12--10--12--10--8--10--8--7--8--7-----7-------------------------------
D |---------------------------------------------9-----9--7-----7--9b11r9--7-----7--
A |---------------------------------------------------------9----------------9-----
E |--------------------------------------------------------------------------------
B |--------------------------------------------------------------------------------

http://www.guitartabcreator.com
Guitar Tab Creator is intended to store guitar tab created through the tool. It currently does not support in-line text editing. Any text you place in here will be lost. If you need to comment on your tab, please use the "Tab Notes" section located below.