Sound will begin in 5 seconds

Bm 12 BAR BLUES

01234567891011121314151617181920212223
E
B
G
D
A
E
B
0 1 2 3 4 5 6 7 8 9 10 11 12 13 14 15 16 17 18 19 20 21 22 23
(/) Slide Up  (\) Slide Down  (h) Hammer On  (p) Pull Off  (b) Bend (r) Release (v) Vibrato

Stave 1:

E|-------------------------8-------|--10b11--10--8--10v--------------------------
B|---------------8--10b12-----10v--|---------------------------------------------
G|---------7--9--------------------|---------------------------------------------
D|--7--10--------------------------|---------------------------------------------
A|---------------------------------|---------------------12--12--12--12--12--12--
E|---------------------------------|---------------------------------------------

Stave 2:

E|--10b12--8-------|-------------------------------------
B|------------10v--|--8--10------------------------------
G|-----------------|---------8p7------7--9---------------
D|-----------------|--------------10--------10--7--9b10--
A|-----------------|-------------------------------------
E|-----------------|-------------------------------------

Stave 3:

E|--10b10--8--10v--10v--10b12--10--|--10v--9--10----------------------------
B|---------------------------------|--------------9--10---------------------
G|---------------------------------|---------------------9--10b12--10v--10--
D|---------------------------------|----------------------------------------
A|---------------------------------|----------------------------------------
E|---------------------------------|----------------------------------------

Stave 4:

E|---------------------8---------------------------------12--10--15v--
B|----------10--10b12-----10b12--10v-------------13--10---------------
G|--9v--9v----------------------------9v--12--9-----------------------
D|--------------------------------------------------------------------
A|--------------------------------------------------------------------
E|--------------------------------------------------------------------

Stave 5:

E|--15b16--13-------------------------------|-------------------------------------------
B|-------------16--13-------------------13--|--15b17--15--13--15b17--15b17--15v--15b17--
G|---------------------14----------14v------|-------------------------------------------
D|-------------------------15--13-----------|-------------------------------------------
A|------------------------------------------|-------------------------------------------
E|------------------------------------------|-------------------------------------------

Stave 6:

E|--------------------------------------|--12---------------------------
B|--13-------15b17--15--13--15--13--15--|------13-----------------------
G|------14v-----------------------------|----------14v--12--14--14b15v--
D|--------------------------------------|-------------------------------
A|--------------------------------------|-------------------------------
E|--------------------------------------|-------------------------------

http://www.guitartabcreator.com
Guitar Tab Creator is intended to store guitar tab created through the tool. It currently does not support in-line text editing. Any text you place in here will be lost. If you need to comment on your tab, please use the "Tab Notes" section located below.