Sound will begin in 5 seconds

Xenoblade Chronicles You Will Know Are Names (00:52-01:27)

01234567891011121314151617181920212223
E
B
G
D
A
E
B
0 1 2 3 4 5 6 7 8 9 10 11 12 13 14 15 16 17 18 19 20 21 22 23
Song Science #1: How Pros Use 6 Chords to Write Hit Songs
(/) Slide Up  (\) Slide Down  (h) Hammer On  (p) Pull Off  (b) Bend (r) Release (v) Vibrato

Stave 1:

E|--------------13--11--------------------------13--11----------9------9--10--12--
B|--11--13--14----------14--13------11--13--14----------11--13-----12-------------
G|------------------------------13------------------------------------------------
D|--------------------------------------------------------------------------------
A|--------------------------------------------------------------------------------
E|--------------------------------------------------------------------------------

Stave 2:

E|--13--13--13--13--13--12--------------13--11--13--11--16--11--11--9------9----------9--
B|------------------------------14--16---------------------------------13-----11--13-----
G|--------------------------15-----------------------------------------------------------
D|---------------------------------------------------------------------------------------
A|---------------------------------------------------------------------------------------
E|---------------------------------------------------------------------------------------

Stave 3:

E|----------------------9--8----------------------------------------------9------9--11--13--
B|--11--------------11--------10--------------10--11--10--11--13--11--13-----11-------------
G|------10------10----------------10------10------------------------------------------------
D|----------11------------------------10----------------------------------------------------
A|------------------------------------------------------------------------------------------
E|------------------------------------------------------------------------------------------

Stave 4:

E|--11--13--11--11--16--18--20--21--20--18--------------13--11--16--18--18--18--18--
B|------------------------------------------14--13--11------------------------------
G|----------------------------------------------------------------------------------
D|----------------------------------------------------------------------------------
A|----------------------------------------------------------------------------------
E|----------------------------------------------------------------------------------

http://www.guitartabcreator.com
Guitar Tab Creator is intended to store guitar tab created through the tool. It currently does not support in-line text editing. Any text you place in here will be lost. If you need to comment on your tab, please use the "Tab Notes" section located below.