Sound will begin in 5 seconds

King Dedede's Theme- Kirby's Return to Dreamland

01234567891011121314151617181920212223
E
B
G
D
A
E
B
0 1 2 3 4 5 6 7 8 9 10 11 12 13 14 15 16 17 18 19 20 21 22 23
Song Science #1: How Pros Use 6 Chords to Write Hit Songs
(/) Slide Up  (\) Slide Down  (h) Hammer On  (p) Pull Off  (b) Bend (r) Release (v) Vibrato

Stave 1:

E|-----------------------------------------------------------------------------------
B|-----11--8--11--8--11--8-----------------------------------------------------------
G|-----------------------------8--5-----5--8--5--10/12--8\5-----8--5-----5-----5-----
D|-----------------------------------8-----------------------8--------8-----8-----8--
A|-----------------------------------------------------------------------------------
E|-----------------------------------------------------------------------------------

Stave 2:

E|--------------------------------------------------------------------
B|--------------------------------------------------------------------
G|--10--8-----10--8------8--10--11--12--15--12-----15--12--15--12-----
D|-------------------10-----------------------------------------------
A|--------------------------------------------------------------------
E|--------------------------------------------------------------------

Stave 3:

E|-----------------------------------------------------------------------------------
B|--16--13------13--16--13--18/20--16\13------16--13------13------13------18--16-----
G|----------15----------------------------15----------15------15------15-------------
D|-----------------------------------------------------------------------------------
A|-----------------------------------------------------------------------------------
E|-----------------------------------------------------------------------------------

Stave 4:

E|--------------------------------------18--15-----18--15--18--15-----
B|--18--16------16------16--18--19--20--------------------------------
G|----------17------17------------------------------------------------
D|--------------------------------------------------------------------
A|--------------------------------------------------------------------
E|--------------------------------------------------------------------

Stave 5:

E|----------------------------------------------------------------------------------------------
B|----------------------------------------------------------------------------------------------
G|----------------------------------------------------------------------------------------------
D|--10--10--10--12--13--13--12--10--8--10---------10--10--10--12--13--13--15--13--15/17--17-----
A|-----------------------------------------10---------------------------------------------------
E|----------------------------------------------------------------------------------------------

Stave 6:

E|------------------------------------------------------------------------------------------------
B|------------------------------------------------------------------------------------------------
G|------------------------------------------------------------------------------------------------
D|--10--10--10--12--13--13--12--10--8--10---------10--10--10--12--10--10--8-----------------------
A|-----------------------------------------10--------------------------------10--8--10------------
E|--------------------------------------------------------------------------------------11--8-----

Stave 7:

E|--------------------------------------------------------------------------------------------------
B|--------10-------------------------10------13-----8--11--13--11--9--------------11--9-------------
G|--7---------10--8--10/12-----7---------10---------------------------12--10--12---------12--10--8--
D|-----8--------------------------8-----------------------------------------------------------------
A|--------------------------------------------------------------------------------------------------
E|--------------------------------------------------------------------------------------------------

Stave 8:

E|---------------------------------------------------
B|------------------------11--8--11--8--11--8--------
G|--10------12--12-----------------------------------
D|------12-------------------------------------------
A|---------------------------------------------------
E|---------------------------------------------------

http://www.guitartabcreator.com
Guitar Tab Creator is intended to store guitar tab created through the tool. It currently does not support in-line text editing. Any text you place in here will be lost. If you need to comment on your tab, please use the "Tab Notes" section located below.