Sound will begin in 5 seconds

Fletcher memorial home

Chords
01234567891011121314151617181920212223
E
B
G
D
A
E
B
0 1 2 3 4 5 6 7 8 9 10 11 12 13 14 15 16 17 18 19 20 21 22 23
Song Science #1: How Pros Use 6 Chords to Write Hit Songs
(/) Slide Up  (\) Slide Down  (h) Hammer On  (p) Pull Off  (b) Bend (r) Release (v) Vibrato

Stave 1:

E|------------------------------------------------------------------------17---------------------------------
B|------13b15--------------------------------13b15--12--15--15b17--15b17------15b17--------------------------
G|--12---------16r14b12---------2--2-----12------------------------------------------------------------------
D|-----------------------14--2--------9-------------------------------------------------5--7b9r8b9-----5--7--
A|------------------------------------9----------------------------------------------7--------------7--------
E|------------------------------------9----------------------------------------------------------------------

Stave 2:

E|------------------------------------------------------------------------10--14--14b16--14v--12v------------
B|--------------------------------------------------------------------12---------------------------7b8v--7v--
G|-------------------------------12--14--14b16v--14v--12v--12p11--12-----------------------------------------
D|--7b9v--7--9v--9/13--------14------------------------------------------------------------------------------
A|-----------------------------------------------------------------------------------------------------------
E|---------------------15\3----------------------------------------------------------------------------------

http://www.guitartabcreator.com
Guitar Tab Creator is intended to store guitar tab created through the tool. It currently does not support in-line text editing. Any text you place in here will be lost. If you need to comment on your tab, please use the "Tab Notes" section located below.