Sound will begin in 5 seconds

Sao Ho Zay cover by Freddie king

01234567891011121314151617181920212223
E
B
G
D
A
E
B
0 1 2 3 4 5 6 7 8 9 10 11 12 13 14 15 16 17 18 19 20 21 22 23
Song Science #1: How Pros Use 6 Chords to Write Hit Songs
(/) Slide Up  (\) Slide Down  (h) Hammer On  (p) Pull Off  (b) Bend (r) Release (v) Vibrato

Stave 1:

E|------------------------------------------------
B|------------------------------------------------
G|-----------------8-----------------8--8--8------
D|------8--10--10-----10--8--10--10-----------10--
A|--10--------------------------------------------
E|------------------------------------------------

Stave 2:

E|---------------------------------------------------------------------------------------------------
B|---------------------------------------------------------------------------------------------------
G|-----------------8---------------------8---------------------8-------------------------------------
D|------8--10--10-----10--8--10--10--10-----10--8--10--10--10-----10--8--10--8--8--10h--10p----------
A|--10---------------------------------------------------------------------------------------10--10--
E|---------------------------------------------------------------------------------------------------

Stave 3:

E|-------------------------------------------
B|-------------------------------------------
G|-----------------10b--8-----------------8--
D|------8--10--10----------10--8--10--10-----
A|--10---------------------------------------
E|-------------------------------------------

Stave 4:

E|----------------------------------------------------
B|----------------------------------------------------
G|-----------------10b--10b--8------------------------
D|------8--10--10---------------10--8--10--10--10--8--
A|--10------------------------------------------------
E|----------------------------------------------------

Stave 5:

E|----------------------------------------------------
B|----------------------------------------------------
G|-----------------8--10--8--8---------------------8--
D|------8--10--10---------------10--8--10--10--10-----
A|--10------------------------------------------------
E|----------------------------------------------------

Stave 6:

E|--------------------------------------------------------
B|--------------------------------------------------------
G|---------10b--10b--10--8--10--8---------10b--10--8------
D|------8--------------------------10--8--------------10--
A|--10----------------------------------------------------
E|--------------------------------------------------------

Stave 7:

E|----------------------------------------------------------
B|----------------------------------------------------------
G|------8--10--8--8-----------------8------8----------------
D|--10---------------10--8--10--10-----10-----10--10p-------
A|-----------------------------------------------------10h--
E|----------------------------------------------------------

Stave 8:

E|-------------------------------------------------------------------------------------------
B|----------------------------------------------------------------------------------------8--
G|--10b--10--8--10--10p-------8--10b--10--8------10b--8------------8--9--10--8--9---------8--
D|-----------------------10h-----------------10----------10----10----------------------8--8--
A|---------------------------------------------------------------------------------10--------
E|-------------------------------------------------------------------------------------------

Stave 9:

E|-------------------------------------------------
B|-------------------------------------------------
G|-----------------8--10--8---------------------8--
D|------8--10--10------------10--8--10--10--10-----
A|--10---------------------------------------------
E|-------------------------------------------------

Stave 10:

E|--------------------------------------------------------
B|--------------------------------------------------------
G|-----------------8--10--10--8--8------------------------
D|------8--10--10-------------------10--8--10--10--10--8--
A|--10----------------------------------------------------
E|--------------------------------------------------------

Stave 11:

E|---------------------------------------------
B|---------------------------------------------
G|-----------------8--10--8-----------------8--
D|------8--10--10------------10--8--10--10-----
A|--10-----------------------------------------
E|---------------------------------------------

Stave 12:

E|--------------8-------------------------------------------------
B|---------11b-----11--8------------------------------------------
G|------------------------10b--8--10--8-----------10b--10--8------
D|------8--------------------------------10--8----------------10--
A|--10------------------------------------------------------------
E|----------------------------------------------------------------

Stave 13:

E|--------------------------------------------------------------11b--8------8---------------------
B|-------------------------------------------------------8--10----------11------------------------
G|------8--10--8-------------8---------------------8--9------------------------10b--8------8--10--
D|--10------------10--8--10-----10--10p-------8----------------------------------------10---------
A|---------------------------------------10h------------------------------------------------------
E|------------------------------------------------------------------------------------------------

Stave 14:

E|-----------------11b--8------8----------------------------------------
B|----------8--10----------11-------------------------------------------
G|----8--9------------------------10b--8------8--10--10b--8--8--10h--8--
D|----------------------------------------10----------------------------
A|----------------------------------------------------------------------
E|----------------------------------------------------------------------

Stave 15:

E|------------------------------------------------8---------
B|-----------------------------------8-----8--11------------
G|------------8--9--10--8--9---------8--8----------------8--
D|----10--10----------------------8--8---------------10-----
A|----------------------------10----------------------------
E|----------------------------------------------------------

Stave 16:

E|-----------------10b--8--10--10p------8-----------------------------------8---------11--
B|----------------------------------10-----11--8-------------------------------11--8------
G|----8--8--9--10---------------------------------10b--10--8------10b--10b----------------
D|------------------------------------------------------------10--------------------------
A|----------------------------------------------------------------------------------------
E|----------------------------------------------------------------------------------------

Stave 17:

E|----8-----------------------------------
B|-------8-------8---------------------8--
G|----------10b-----10--10p-------8-------
D|---------------------------10h----------
A|----------------------------------------
E|----------------------------------------

http://www.guitartabcreator.com
Guitar Tab Creator is intended to store guitar tab created through the tool. It currently does not support in-line text editing. Any text you place in here will be lost. If you need to comment on your tab, please use the "Tab Notes" section located below.