Red Velvet - Psycho (Easy Fingerstyle Verisio

Chords

01234567891011121314151617181920212223
E
B
G
D
A
E
B
0 1 2 3 4 5 6 7 8 9 10 11 12 13 14 15 16 17 18 19 20 21 22 23
(/) Slide Up  (\) Slide Down  (h) Hammer On  (p) Pull Off  (b) Bend (r) Release (v) Vibrato

Capo Fret 3

Stave 1:

E|---------------------------0---3---0-------0---------------
B|---1---1---1---3---1---3-----------1---1---1---3---1---3---
G|-----------------------------------0-------0---------------
D|-----------------------------------2-------2---------------
A|---------------------------3-------3-------3---------------
E|-----------------------------------------------------------

Stave 2:

E|---0-------0---------------1---1---1---1---0-----------1---1---
B|---0---0---0-------------------------------------------0-------
G|---1-------1-------0---0-----------------------0---0---0-------
D|-----------2-------------------------------------------0-------
A|-----------2-------------------------------0-------------------
E|---0-------0---0-----------------------------------------------

Stave 3:

E|---1---1---0-----------3/5---3---1---0---0---0---0-----------
B|-------------------1---0-----------------------------1-------
G|---------------2-----------------------------------------0---
D|-----------3-------------------------------------------------
A|-------------------------------------3-----------------------
E|-------------------------------------------------------------

Stave 4:

E|---------------------------0---3---0-------0---------------
B|---1---1---1---3---1---3-----------1---1---1---3---1---3---
G|-----------------------------------0-------0---------------
D|-----------------------------------2-------2---------------
A|---------------------------3-------3-------3---------------
E|-----------------------------------------------------------

Stave 5:

E|---0-------0---------------1---1---1---1---0-----------1---1---
B|---0---0---0-------------------------------------------0-------
G|---1-------1-------0---0-----------------------0---0---0-------
D|-----------2-------------------------------------------0-------
A|-----------2-------------------------------0-------------------
E|---0-------0---0-----------------------------------------------

Stave 6:

E|---1---1---0-----------3/5---3---1---0-------------------
B|-------------------1---3-----------------1---3---3-------
G|---------------2-----------------------------------------
D|-----------3---------------------------------------------
A|---------------------------------------------------------
E|-------------------------------------3---------------3---

							http://www.guitartabcreator.com
genre
Instruments
{"strings":[[[".",".",".",".",".",".",0,3,0,".",0,".",".","."],[1,1,1,3,1,3,".",".",1,1,1,3,1,3],[".",".",".",".",".",".",".",".",0,".",0,".",".","."],[".",".",".",".",".",".",".",".",2,".",2,".",".","."],[".",".",".",".",".",".",3,".",3,".",3,".",".","."],[".",".",".",".",".",".",".",".",".",".",".",".",".","."]],[[0,".",0,".",".",".",1,1,1,1,0,".",".",1,1],[0,0,0,".",".",".",".",".",".",".",".",".",".",0,"."],[1,".",1,".",0,0,".",".",".",".",".",0,0,0,"."],[".",".",2,".",".",".",".",".",".",".",".",".",".",0,"."],[".",".",2,".",".",".",".",".",".",".",0,".",".",".","."],[0,".",0,0,".",".",".",".",".",".",".",".",".",".","."]],[[1,1,0,".",".",3,"/",5,3,1,0,0,0,0,".","."],[".",".",".",".",1,0,".",".",".",".",".",".",".",".",1,"."],[".",".",".",2,".",".",".",".",".",".",".",".",".",".",".",0],[".",".",3,".",".",".",".",".",".",".",".",".",".",".",".","."],[".",".",".",".",".",".",".",".",".",".",3,".",".",".",".","."],[".",".",".",".",".",".",".",".",".",".",".",".",".",".",".","."]],[[".",".",".",".",".",".",0,3,0,".",0,".",".","."],[1,1,1,3,1,3,".",".",1,1,1,3,1,3],[".",".",".",".",".",".",".",".",0,".",0,".",".","."],[".",".",".",".",".",".",".",".",2,".",2,".",".","."],[".",".",".",".",".",".",3,".",3,".",3,".",".","."],[".",".",".",".",".",".",".",".",".",".",".",".",".","."]],[[0,".",0,".",".",".",1,1,1,1,0,".",".",1,1],[0,0,0,".",".",".",".",".",".",".",".",".",".",0,"."],[1,".",1,".",0,0,".",".",".",".",".",0,0,0,"."],[".",".",2,".",".",".",".",".",".",".",".",".",".",0,"."],[".",".",2,".",".",".",".",".",".",".",0,".",".",".","."],[0,".",0,0,".",".",".",".",".",".",".",".",".",".","."]],[[1,1,0,".",".",3,"/",5,3,1,0,".",".",".","."],[".",".",".",".",1,3,".",".",".",".",".",1,3,3,"."],[".",".",".",2,".",".",".",".",".",".",".",".",".",".","."],[".",".",3,".",".",".",".",".",".",".",".",".",".",".","."],[".",".",".",".",".",".",".",".",".",".",".",".",".",".","."],[".",".",".",".",".",".",".",".",".",".",3,".",".",".",3]]],"numberofstrings":6,"notes":["E","B","G","D","A","E","B"],"capo":"3","stringnotes":["E4","B3","G3","D3","A2","E2"],"comments":["Stave 1:","Stave 2:","Stave 3:","Stave 4:","Stave 5:","Stave 6:"],"timing":[[null,null,null,null,null,null,null,null,null,null,null,null,null,null],[null,null,null,"W","W","W","W","W","W","W","W","W","W","W","W"],["W","W","W","W","W","W",null,"W","W","W","W","W","W","W","W","W"],["W","W","W","W","W","W","W","W","W","W","W","W","W","W","W"],["W","W","W","W","W","W","W","W","W","W","W","W","W","W","W"],["W","W","W","W","W","W",null,"W","W","W","W","W","W","W","W"]],"timingvisible":false,"tabcounter":15,"stave":5,"totalstaves":6,"instrument":"6guitar","selectedtuning":"6_standard","version":"13"}

Member for

1 month 4 weeks
Submitted by frogletplays on Fri, 2020-10-02 18:20