Unfurled

Chords

01234567891011121314151617181920212223
E
B
G
D
A
E
B
0 1 2 3 4 5 6 7 8 9 10 11 12 13 14 15 16 17 18 19 20 21 22 23
(/) Slide Up  (\) Slide Down  (h) Hammer On  (p) Pull Off  (b) Bend (r) Release (v) Vibrato

Stave 1:

E|-----------------------------------------------------------------------------
B|-----------------------------------------------------------------------------
G|-----------------------------------------------------------------------------
D|--14--------------14--------------14--------------14--------------14-----12--
A|--12--0--0--0--0--12--0--0--0--0--12--0--0--0--0--12--0--0--0--0--12-----10--
E|-----------------------------------------------------------------------------

Stave 2:

E|-----------------------------------------------------------------------------
B|-----------------------------------------------------------------------------
G|-----------------------------------------------------------------------------
D|--12--------------12--------------12--------------12--------------12-----10--
A|--10--0--0--0--0--10--0--0--0--0--10--0--0--0--0--10--0--0--0--0--10-----8---
E|-----------------------------------------------------------------------------

Stave 3:

E|----------------------------------------------------------------------------
B|----------------------------------------------------------------------------
G|----------------------------------------------------------------------------
D|--10--------------10--------------10--------------10--------------10-----8--
A|--8---0--0--0--0--8---0--0--0--0--8---0--0--0--0--8---0--0--0--0--8------6--
E|----------------------------------------------------------------------------

Stave 4:

E|------------------------------------------------------------------------
B|------------------------------------------------------------------------
G|------------------------------------------------------------------------
D|--8--------------8--------------8--------------8--------------8-----10--
A|--6--0--0--0--0--6--0--0--0--0--6--0--0--0--0--6--0--0--0--0--6-----8---
E|------------------------------------------------------------------------

Stave 5:

E|------------------------------------------------------------------------
B|------------------------------------------------------------------------
G|------------------------------------------------------------------------
D|--8--------------8--------------8--------------8--------8-----8-----10--
A|--6--0--0--0--0--6--0--0--0--0--6--0--0--0--0--6--0--0--6-----6-----8---
E|------------------------------------------------------------------------

Stave 6:

E|-------------------------------------------------------------------------------------
B|-------------------------------------------------------------------------------------
G|-------------------------------------------------------------------------------------
D|--12--------12--10--10--8--8--------8--10--10--12--12--------10--12--10-----8-----6--
A|--10--------10--8---8---6--6--------6--8---8---10--10--------8---10--8------6-----4--
E|-------------------------------------------------------------------------------------

Stave 7:

E|----------------------------------------------------------------------------------
B|----------------------------------------------------------------------------------
G|-----------8--------10--------8--------------8--------10-----------------8-----6--
D|--7--------8--------10--------8-----7--------8--------10--------9--------8-----6--
A|--7--------6--------8---------6-----7--------6--------8---------9--------6-----4--
E|--5-----5--------5---------5--------5-----5--------5---------5--7-----5-----------

							http://www.guitartabcreator.com
genre
Instruments
{"title":"Unfurled","strings":[[[".",".",".",".",".",".",".",".",".",".",".",".",".",".",".",".",".",".",".",".",".","_","."],[".",".",".",".",".",".",".",".",".",".",".",".",".",".",".",".",".",".",".",".",".","_","."],[".",".",".",".",".",".",".",".",".",".",".",".",".",".",".",".",".",".",".",".",".","_","."],[14,".",".",".",".",14,".",".",".",".",14,".",".",".",".",14,".",".",".",".",14,"_",12],[12,0,0,0,0,12,0,0,0,0,12,0,0,0,0,12,0,0,0,0,12,"_",10],[".",".",".",".",".",".",".",".",".",".",".",".",".",".",".",".",".",".",".",".",".","_","."]],[[".",".",".",".",".",".",".",".",".",".",".",".",".",".",".",".",".",".",".",".",".","_","."],[".",".",".",".",".",".",".",".",".",".",".",".",".",".",".",".",".",".",".",".",".","_","."],[".",".",".",".",".",".",".",".",".",".",".",".",".",".",".",".",".",".",".",".",".","_","."],[12,".",".",".",".",12,".",".",".",".",12,".",".",".",".",12,".",".",".",".",12,"_",10],[10,0,0,0,0,10,0,0,0,0,10,0,0,0,0,10,0,0,0,0,10,"_",8],[".",".",".",".",".",".",".",".",".",".",".",".",".",".",".",".",".",".",".",".",".","_","."]],[[".",".",".",".",".",".",".",".",".",".",".",".",".",".",".",".",".",".",".",".",".","_","."],[".",".",".",".",".",".",".",".",".",".",".",".",".",".",".",".",".",".",".",".",".","_","."],[".",".",".",".",".",".",".",".",".",".",".",".",".",".",".",".",".",".",".",".",".","_","."],[10,".",".",".",".",10,".",".",".",".",10,".",".",".",".",10,".",".",".",".",10,"_",8],[8,0,0,0,0,8,0,0,0,0,8,0,0,0,0,8,0,0,0,0,8,"_",6],[".",".",".",".",".",".",".",".",".",".",".",".",".",".",".",".",".",".",".",".",".","_","."]],[[".",".",".",".",".",".",".",".",".",".",".",".",".",".",".",".",".",".",".",".",".","_","."],[".",".",".",".",".",".",".",".",".",".",".",".",".",".",".",".",".",".",".",".",".","_","."],[".",".",".",".",".",".",".",".",".",".",".",".",".",".",".",".",".",".",".",".",".","_","."],[8,".",".",".",".",8,".",".",".",".",8,".",".",".",".",8,".",".",".",".",8,"_",10],[6,0,0,0,0,6,0,0,0,0,6,0,0,0,0,6,0,0,0,0,6,"_",8],[".",".",".",".",".",".",".",".",".",".",".",".",".",".",".",".",".",".",".",".",".","_","."]],[[".",".",".",".",".",".",".",".",".",".",".",".",".",".",".",".",".",".",".","_",".","_","."],[".",".",".",".",".",".",".",".",".",".",".",".",".",".",".",".",".",".",".","_",".","_","."],[".",".",".",".",".",".",".",".",".",".",".",".",".",".",".",".",".",".",".","_",".","_","."],[8,".",".",".",".",8,".",".",".",".",8,".",".",".",".",8,".",".",8,"_",8,"_",10],[6,0,0,0,0,6,0,0,0,0,6,0,0,0,0,6,0,0,6,"_",6,"_",8],[".",".",".",".",".",".",".",".",".",".",".",".",".",".",".",".",".",".",".","_",".","_","."]],[[".","_","_",".",".",".",".",".","_","_",".",".",".",".",".","_","_",".",".",".","_",".","_","."],[".","_","_",".",".",".",".",".","_","_",".",".",".",".",".","_","_",".",".",".","_",".","_","."],[".","_","_",".",".",".",".",".","_","_",".",".",".",".",".","_","_",".",".",".","_",".","_","."],[12,"_","_",12,10,10,8,8,"_","_",8,10,10,12,12,"_","_",10,12,10,"_",8,"_",6],[10,"_","_",10,8,8,6,6,"_","_",6,8,8,10,10,"_","_",8,10,8,"_",6,"_",4],[".","_","_",".",".",".",".",".","_","_",".",".",".",".",".","_","_",".",".",".","_",".","_","."]],[[".","_",".",".","_",".",".","_",".",".","_",".","_",".",".","_",".",".","_",".",".","_",".",".","_","."],[".","_",".",".","_",".",".","_",".",".","_",".","_",".",".","_",".",".","_",".",".","_",".",".","_","."],[".","_",".",8,"_",".",10,"_",".",8,"_",".","_",".",8,"_",".",10,"_",".",".","_",".",8,"_",6],[7,"_",".",8,"_",".",10,"_",".",8,"_",7,"_",".",8,"_",".",10,"_",".",9,"_",".",8,"_",6],[7,"_",".",6,"_",".",8,"_",".",6,"_",7,"_",".",6,"_",".",8,"_",".",9,"_",".",6,"_",4],[5,"_",5,".","_",5,".","_",5,".","_",5,"_",5,".","_",5,".","_",5,7,"_",5,".","_","."]]],"numberofstrings":6,"notes":["E","B","G","D","A","E","B"],"capo":0,"stringnotes":["E4","B3","G3","D3","A2","E2"],"comments":["Stave 1:","Stave 2:","Stave 3:","Stave 4:","Stave 5:","Stave 6:","Stave 7:"],"timing":[["W","W","W","W","W","W","W","W","W","W","W","W","W","W","W","W","W","W","W","W","W",null,"W"],["W","W","W","W","W","W","W","W","W","W","W","W","W","W","W","W","W","W","W","W","W",null,"W"],["W","W","W","W","W","W","W","W","W","W","W","W","W","W","W","W","W","W","W","W","W",null,"W","W"],["W","W","W","W","W","W","W","W","W","W","W","W","W","W","W","W","W","W","W","W","W",null,"W"],["W","W","W","W","W","W","W","W","W","W","W","W","W","W","W","W","W","W","W",null,"W",null,"W"],["W",null,null,"W","W","W","W","W",null,null,"W","W","W","W","W",null,null,"W","W","W",null,"W","W","W"],["W",null,"W","W",null,"W","W",null,"W","W",null,"W",null,"W","W",null,"W","W",null,"W","W",null,"W","W",null,"W"]],"timingvisible":false,"tabcounter":23,"stave":5,"totalstaves":7,"instrument":"6guitar","selectedtuning":"6_standard","version":"13"}

Member for

1 year 9 months
Submitted by FrenchFry on Fri, 2020-03-27 22:24