Rain Song

Chords

01234567891011121314151617181920212223
E
B
G
D
A
E
B
0 1 2 3 4 5 6 7 8 9 10 11 12 13 14 15 16 17 18 19 20 21 22 23
(/) Slide Up  (\) Slide Down  (h) Hammer On  (p) Pull Off  (b) Bend (r) Release (v) Vibrato

Stave 1:

E|------------------------------------------------------
B|--9------9---9------9---0--0--8-----8--8-----8--0--0--
G|--10-----10--10-----10--0--0--8-----8--8-----8--0--0--
D|--10-----10--10-----10--0--0--8-----8--8-----8--0--0--
A|--8------8---8------8---0--0--6-----6--6-----6--0--0--
E|------------------------------------------------------

Stave 2:

E|----------------------------------------------------------
B|----------------------------------------------------------
G|----------------------------------------------------------
D|----------------------------------------------------------
A|--15-----15--15-----15--0--0--13-----13--13-----13--0--0--
E|--13-----13--13-----13--0--0--11-----11--11-----11--0--0--

Stave 3:

E|----------------------------------------------------------------------------------------------------
B|----------------------------------------------------------------------------------------------------
G|--11--10----------------11--10-----------------11--10----------------11--10-----------------11--10--
D|----------13--11--8-------------13--11--13-------------13--11--8-------------13--11--13-------------
A|----------------------------------------------------------------------------------------------------
E|----------------------------------------------------------------------------------------------------

Stave 4:

E|------------------
B|------------------
G|----------10--11--
D|--11--13----------
A|------------------
E|------------------

Stave 5:

E|--------------------
B|--3-----------------
G|--------4--6--------
D|-----4--------4-----
A|--------------------
E|--------------------

							http://www.guitartabcreator.com
genre
Instruments
{"title":"Rain Song","strings":[[[".","_",".",".","_",".",".",".",".","_",".",".","_",".",".","."],[9,"_",9,9,"_",9,0,0,8,"_",8,8,"_",8,0,0],[10,"_",10,10,"_",10,0,0,8,"_",8,8,"_",8,0,0],[10,"_",10,10,"_",10,0,0,8,"_",8,8,"_",8,0,0],[8,"_",8,8,"_",8,0,0,6,"_",6,6,"_",6,0,0],[".","_",".",".","_",".",".",".",".","_",".",".","_",".",".","."]],[[".","_",".",".","_",".",".",".",".","_",".",".","_",".",".","."],[".","_",".",".","_",".",".",".",".","_",".",".","_",".",".","."],[".","_",".",".","_",".",".",".",".","_",".",".","_",".",".","."],[".","_",".",".","_",".",".",".",".","_",".",".","_",".",".","."],[15,"_",15,15,"_",15,0,0,13,"_",13,13,"_",13,0,0],[13,"_",13,13,"_",13,0,0,11,"_",11,11,"_",11,0,0]],[[".",".",".",".",".","_",".",".",".",".",".","_",".",".",".",".",".","_",".",".",".",".",".","_",".","."],[".",".",".",".",".","_",".",".",".",".",".","_",".",".",".",".",".","_",".",".",".",".",".","_",".","."],[11,10,".",".",".","_",11,10,".",".",".","_",11,10,".",".",".","_",11,10,".",".",".","_",11,10],[".",".",13,11,8,"_",".",".",13,11,13,"_",".",".",13,11,8,"_",".",".",13,11,13,"_",".","."],[".",".",".",".",".","_",".",".",".",".",".","_",".",".",".",".",".","_",".",".",".",".",".","_",".","."],[".",".",".",".",".","_",".",".",".",".",".","_",".",".",".",".",".","_",".",".",".",".",".","_",".","."]],[[".",".",".","."],[".",".",".","."],[".",".",10,11],[11,13,".","."],[".",".",".","."],[".",".",".","."]],[[".",".",".",".",".","_"],[3,".",".",".",".","_"],[".",".",4,6,".","_"],[".",4,".",".",4,"_"],[".",".",".",".",".","_"],[".",".",".",".",".","_"]]],"numberofstrings":6,"notes":["E","B","G","D","A","E","B"],"capo":0,"stringnotes":["E4","B3","G3","D3","A2","E2"],"comments":["Stave 1:","Stave 2:","Stave 3:","Stave 4:","Stave 5:"],"timing":[["W",null,"W","W",null,"W","W","W","W",null,"W","W",null,"W","W","W"],["W",null,"W","W",null,"W","W","W","W",null,"W","W",null,"W","W","W"],["W","W","W","W","W",null,"W","W","W","W","W",null,"W","W","W","W","W",null,"W","W","W","W","W",null,"W","W","W","W"],["W","W","W","W"],["W","W","W","W","W"]],"timingvisible":false,"tabcounter":6,"stave":4,"totalstaves":5,"instrument":"6guitar","selectedtuning":"6_standard","version":"13"}

Member for

1 year 9 months
Submitted by FrenchFry on Tue, 2020-01-14 21:45