My Life Is Yours Guitar Solo

01234567891011121314151617181920212223
E
B
G
D
A
E
B
0 1 2 3 4 5 6 7 8 9 10 11 12 13 14 15 16 17 18 19 20 21 22 23
(/) Slide Up  (\) Slide Down  (h) Hammer On  (p) Pull Off  (b) Bend (r) Release (v) Vibrato

Stave 1:

E|---------------------------------------------------14b16--
B|----------------------------------------------------------
G|-------------13b14--13--11--------------------------------
D|--12v-----------------------12\9--------------------------
A|----------------------------------12--------14p12---------
E|----------------------------------------------------------

Stave 2:

E|-------------------------------
B|---------16--------------------
G|--14h15--15--15b17--15p14------
D|---------------------------15--
A|-------------------------------
E|-------------------------------

							http://www.guitartabcreator.com
Chords

Instruments
{"strings":[[[".",".","_","_",".",".",".",".",".",".",".",".",".","_","_",".",".",".",14,"b",16],[".",".","_","_",".",".",".",".",".",".",".",".",".","_","_",".",".",".",".",".","."],[".",".","_","_",13,"b",14,13,11,".",".",".",".","_","_",".",".",".",".",".","."],[12,"v","_","_",".",".",".",".",".",12,"\\",9,".","_","_",".",".",".",".",".","."],[".",".","_","_",".",".",".",".",".",".",".",".",12,"_","_",14,"p",12,".",".","."],[".",".","_","_",".",".",".",".",".",".",".",".",".","_","_",".",".",".",".",".","."]],[[".",".",".",".",".",".",".",".",".",".","."],[".",".",".",16,".",".",".",".",".",".","."],[14,"h",15,15,15,"b",17,15,"p",14,"."],[".",".",".",".",".",".",".",".",".",".",15],[".",".",".",".",".",".",".",".",".",".","."],[".",".",".",".",".",".",".",".",".",".","."]]],"numberofstrings":6,"notes":["E","B","G","D","A","E","B"],"capo":0,"stringnotes":["E4","B3","G3","D3","A2","E2"],"comments":["Stave 1:","Stave 2:"],"timing":[["W",null,null,null,"W",null,"W","W","W","W",null,"W","W",null,null,"W",null,"W","W",null,"W"],["W",null,"W","W","W",null,"W","W",null,"W","W"]],"timingvisible":false,"tabcounter":11,"stave":1,"totalstaves":2,"instrument":"6guitar","selectedtuning":"6_standard","version":"13"}

Member for

1 year 9 months
Submitted by FrenchFry on Mon, 2020-11-30 20:51