My Life Is Yours Bass

Chords

01234567891011121314151617181920212223
E
B
G
D
A
E
B
0 1 2 3 4 5 6 7 8 9 10 11 12 13 14 15 16 17 18 19 20 21 22 23
(/) Slide Up  (\) Slide Down  (h) Hammer On  (p) Pull Off  (b) Bend (r) Release (v) Vibrato

Stave 1:

E|--------------------------------------------------------
B|--------------------------------------------------------
G|--------------------------------------------------------
D|--------------------------------------------------------
A|--5--------------------------5--------------------------
E|--0--------------------------0--------------------------

Stave 2:

E|----------------------------------------------------------------------------------------------------------------------
B|----------------------------------------------------------------------------------------------------------------------
G|----------------------------------------------------------------------------------------------------------------------
D|-----------7--9-----------------------------4--7----------------------x-----------7-----------------------------------
A|--7-----7-----------9--7-----7--7--5-----5-----------7--5-----5--5/4--------5--4--------5--4-----0--0-----0-----0--0--
E|----------------------------------------------------------------------------------------------------------------------

Stave 3:

E|--------------------------------------------------------------------------------------------------
B|--------------------------------------------------------------------------------------------------
G|--------------------------------------------------------------------------------------------------
D|--------------------------------------------------------------------------------------------------
A|--5-----5--5--5--5--5--5--4-----4--4--4--4--4--4--3-----3--3--3--3--3--3--3--3--3--3--------------
E|--------------------------------------------------------------------------------------2--2--2--2--

							http://www.guitartabcreator.com
Instruments
{"strings":[[[".","_","_","_","_","_","_","_","_",".","_","_","_","_","_","_","_","_"],[".","_","_","_","_","_","_","_","_",".","_","_","_","_","_","_","_","_"],[".","_","_","_","_","_","_","_","_",".","_","_","_","_","_","_","_","_"],[".","_","_","_","_","_","_","_","_",".","_","_","_","_","_","_","_","_"],[5,"_","_","_","_","_","_","_","_",5,"_","_","_","_","_","_","_","_"],[0,"_","_","_","_","_","_","_","_",0,"_","_","_","_","_","_","_","_"]],[[".","_",".",".",".","_",".",".","_",".",".",".","_",".",".",".","_",".",".","_",".",".",".",".",".","_",".",".",".","_",".",".","_",".",".","_",".","_",".","."],[".","_",".",".",".","_",".",".","_",".",".",".","_",".",".",".","_",".",".","_",".",".",".",".",".","_",".",".",".","_",".",".","_",".",".","_",".","_",".","."],[".","_",".",".",".","_",".",".","_",".",".",".","_",".",".",".","_",".",".","_",".",".",".",".",".","_",".",".",".","_",".",".","_",".",".","_",".","_",".","."],[".","_",".",7,9,"_",".",".","_",".",".",".","_",".",4,7,"_",".",".","_",".",".",".",".","x4","_",".",".",7,"_",".",".","_",".",".","_",".","_",".","."],[7,"_",7,".",".","_",9,7,"_",7,7,5,"_",5,".",".","_",7,5,"_",5,5,"/",4,".","_",5,4,".","_",5,4,"_",0,0,"_",0,"_",0,0],[".","_",".",".",".","_",".",".","_",".",".",".","_",".",".",".","_",".",".","_",".",".",".",".",".","_",".",".",".","_",".",".","_",".",".","_",".","_",".","."]],[[".","_",".",".",".",".",".",".",".","_",".",".",".",".",".",".",".","_",".",".",".",".",".",".",".",".",".",".",".",".",".","."],[".","_",".",".",".",".",".",".",".","_",".",".",".",".",".",".",".","_",".",".",".",".",".",".",".",".",".",".",".",".",".","."],[".","_",".",".",".",".",".",".",".","_",".",".",".",".",".",".",".","_",".",".",".",".",".",".",".",".",".",".",".",".",".","."],[".","_",".",".",".",".",".",".",".","_",".",".",".",".",".",".",".","_",".",".",".",".",".",".",".",".",".",".",".",".",".","."],[5,"_",5,5,5,5,5,5,4,"_",4,4,4,4,4,4,3,"_",3,3,3,3,3,3,3,3,3,3,".",".",".","."],[".","_",".",".",".",".",".",".",".","_",".",".",".",".",".",".",".","_",".",".",".",".",".",".",".",".",".",".",2,2,2,2]]],"numberofstrings":6,"notes":["E","B","G","D","A","E","B"],"capo":0,"stringnotes":["E4","B3","G3","D3","A2","E2"],"comments":["Stave 1:","Stave 2:","Stave 3:"],"timing":[["W",null,null,null,null,null,null,null,null,"W"],["W",null,"W","W","W",null,"W","W","W","W","W","W",null,"W","W","W",null,"W","W",null,"W","W",null,"W","W",null,"W","W","W",null,"W","W",null,"W","W",null,"W",null,"W","W"],["W",null,"W","W","W","W","W","W","W",null,"W","W","W","W","W","W","W",null,"W","W","W","W","W","W","W","W","W","W","W","W","W","W"]],"timingvisible":false,"tabcounter":32,"stave":2,"totalstaves":3,"instrument":"6guitar","selectedtuning":"6_standard","version":"13"}

Member for

1 year 9 months
Submitted by FrenchFry on Sun, 2020-11-29 15:19