Liar (revised)

Chords

01234567891011121314151617181920212223
E
B
G
D
A
E
B
0 1 2 3 4 5 6 7 8 9 10 11 12 13 14 15 16 17 18 19 20 21 22 23
(/) Slide Up  (\) Slide Down  (h) Hammer On  (p) Pull Off  (b) Bend (r) Release (v) Vibrato

Stave 1:

E|--------------------------------7-----------7--
B|-----------------------------------9-----------
G|-----------------------------8-----------8-----
D|--------------------------6-----------6--------
A|--6--6--6--6--6--6--6--6-----------------------
D|--6--6--6--6--6--6--6--6-----------------------

Stave 2:

E|----------------------------------------------------------------
B|----------------------------------------------------------------
G|--------------------------------------8--8--8\10--10--10--8--8--
D|--6--6--6--6--6--6--6--6--8--8--8--8----------------------------
A|----------------------------------------------------------------
D|----------------------------------------------------------------

							http://www.guitartabcreator.com
Instruments
{"strings":[[[".",".",".",".",".",".",".",".",".",".",7,".",".",".",7],[".",".",".",".",".",".",".",".",".",".",".",9,".",".","."],[".",".",".",".",".",".",".",".",".",8,".",".",".",8,"."],[".",".",".",".",".",".",".",".",6,".",".",".",6,".","."],[6,6,6,6,6,6,6,6,".",".",".",".",".",".","."],[6,6,6,6,6,6,6,6,".",".",".",".",".",".","."]],[[".",".",".",".",".",".",".",".",".",".",".",".",".",".",".",".",".",".",".",".","."],[".",".",".",".",".",".",".",".",".",".",".",".",".",".",".",".",".",".",".",".","."],[".",".",".",".",".",".",".",".",".",".",".",".",8,8,8,"\\",10,10,10,8,8],[6,6,6,6,6,6,6,6,8,8,8,8,".",".",".",".",".",".",".",".","."],[".",".",".",".",".",".",".",".",".",".",".",".",".",".",".",".",".",".",".",".","."],[".",".",".",".",".",".",".",".",".",".",".",".",".",".",".",".",".",".",".",".","."]]],"numberofstrings":6,"notes":["E","B","G","D","A","D","B"],"capo":0,"stringnotes":["E4","B3","G3","D3","A2","D2"],"comments":["Stave 1:","Stave 2:"],"timing":[["W","W","W","W","W","W","W","W","W","W","W","W","W","W","W"],["W","W","W","W","W","W","W","W","W","W","W","W","W","W","W",null,"W","W","W","W","W"]],"timingvisible":false,"tabcounter":15,"stave":0,"totalstaves":2,"instrument":"6guitar","selectedtuning":"6_standard","version":"13"}

Member for

1 year 9 months
Submitted by FrenchFry on Sun, 2020-11-29 15:44