Four

Chords

01234567891011121314151617181920212223
E
B
G
D
A
E
B
0 1 2 3 4 5 6 7 8 9 10 11 12 13 14 15 16 17 18 19 20 21 22 23
(/) Slide Up  (\) Slide Down  (h) Hammer On  (p) Pull Off  (b) Bend (r) Release (v) Vibrato

Stave 1:

E|--2--------2--------2--------2--------4--------4--------4--------4--------
B|-----4--------4--------4--------4--------5--------5--------5--------5-----
G|--------3--------3--------3--------3--------6--------6--------6--------6--
D|--------------------------------------------------------------------------
A|--------------------------------------------------------------------------
E|--------------------------------------------------------------------------

Stave 2:

E|--------------------------------------------------------------------------
B|--------------------------------------------------------------------------
G|--------------------------------------------------------------------------
D|--------------------------------------------------------------------------
A|--------1--------1--------1--------1--------4--------4--------4--------4--
E|--2--2-----2--2-----2--2-----2--2-----4--4-----4--4-----4--4-----4--4-----

Stave 3:

E|--------------
B|--------------
G|--8-----4-----
D|--8--6--4--4--
A|--6--6--2--4--
E|-----4-----2--

Stave 4:

E|--------------------------------------------------------------------------------------
B|--------------------------------------------------------------------------------------
G|--------------------------------------------------------------------------------------
D|--------------------------------------------------------------------------------------
A|-----------------------------------------------------------------------------------4--
E|--0h2--2--2--2--2--2--2--0h2--2--2--2--2--2--2--0h2--2--2--2--2--2--2--6-----4--------

Stave 5:

E|-----------------------------------------------------------------
B|-----------------------------------------------------------------
G|-----------------------------------------------6--6--6--6--6-----
D|--4--------------6--------------8--------------6--6--6--6--6-----
A|--4--------------6--------------8--------------4--4--4--4--4-----
E|--2-----2--2--2--4-----4--4--4--6-----6--6--6-----------------12/

Stave 6:

E|-----------------------------------------------------------------------
B|-----------------------------------------------------------------------
G|-----------------------------------------------------------------------
D|--4-----4--------6-----6--------8-----8--------6--6--6--6--6--6--6--6--
A|--4--------4-----6--------6-----8--------8-----6--6--6--6--6--6--6--6--
E|--2-----------2--4-----------4--6-----------6--4--4--4--4--4--4--4--4--

Stave 7:

E|-----------------------------------------------------------------------------------------------------
B|-----------------------------------------------------------------------------------------------------
G|-----------------------------------------------------------------------------------------------------
D|-----------------------------------------------------------------------------------------------------
A|--------------------------------------------------------------------------------------2-----3--2-----
E|--2-----2--2--2--2-----2--3-----2-----2--2--2--2-----2--4-----2-----2--2--2--2-----2-----2--------3--

							http://www.guitartabcreator.com
Tab Notes
F# Mixolydian
Instruments
{"strings":[[[2,".",".",2,".",".",2,".",".",2,".",".",4,".",".",4,".",".",4,".",".",4,".","."],[".",4,".",".",4,".",".",4,".",".",4,".",".",5,".",".",5,".",".",5,".",".",5,"."],[".",".",3,".",".",3,".",".",3,".",".",3,".",".",6,".",".",6,".",".",6,".",".",6],[".",".",".",".",".",".",".",".",".",".",".",".",".",".",".",".",".",".",".",".",".",".",".","."],[".",".",".",".",".",".",".",".",".",".",".",".",".",".",".",".",".",".",".",".",".",".",".","."],[".",".",".",".",".",".",".",".",".",".",".",".",".",".",".",".",".",".",".",".",".",".",".","."]],[[".",".",".",".",".",".",".",".",".",".",".",".",".",".",".",".",".",".",".",".",".",".",".","."],[".",".",".",".",".",".",".",".",".",".",".",".",".",".",".",".",".",".",".",".",".",".",".","."],[".",".",".",".",".",".",".",".",".",".",".",".",".",".",".",".",".",".",".",".",".",".",".","."],[".",".",".",".",".",".",".",".",".",".",".",".",".",".",".",".",".",".",".",".",".",".",".","."],[".",".",1,".",".",1,".",".",1,".",".",1,".",".",4,".",".",4,".",".",4,".",".",4],[2,2,".",2,2,".",2,2,".",2,2,".",4,4,".",4,4,".",4,4,".",4,4,"."]],[[".",".",".","."],[".",".",".","."],[8,".",4,"."],[8,6,4,4],[6,6,2,4],[".",4,".",2]],[[".",".",".",".",".",".",".",".",".",".",".",".",".",".",".",".",".",".",".",".",".",".",".",".",".",".",".",".","_",".","_","."],[".",".",".",".",".",".",".",".",".",".",".",".",".",".",".",".",".",".",".",".",".",".",".",".",".",".",".",".","_",".","_","."],[".",".",".",".",".",".",".",".",".",".",".",".",".",".",".",".",".",".",".",".",".",".",".",".",".",".",".",".","_",".","_","."],[".",".",".",".",".",".",".",".",".",".",".",".",".",".",".",".",".",".",".",".",".",".",".",".",".",".",".",".","_",".","_","."],[".",".",".",".",".",".",".",".",".",".",".",".",".",".",".",".",".",".",".",".",".",".",".",".",".",".",".",".","_",".","_",4],[0,"h",2,2,2,2,2,2,2,0,"h",2,2,2,2,2,2,2,0,"h",2,2,2,2,2,2,2,6,"_",4,"_","."]],[[".","_",".",".",".",".","_",".",".",".",".","_",".",".",".",".",".",".",".",".",".","."],[".","_",".",".",".",".","_",".",".",".",".","_",".",".",".",".",".",".",".",".",".","."],[".","_",".",".",".",".","_",".",".",".",".","_",".",".",".",6,6,6,6,6,".","."],[4,"_",".",".",".",6,"_",".",".",".",8,"_",".",".",".",6,6,6,6,6,".","."],[4,"_",".",".",".",6,"_",".",".",".",8,"_",".",".",".",4,4,4,4,4,".","."],[2,"_",2,2,2,4,"_",4,4,4,6,"_",6,6,6,".",".",".",".",".",12,"/"]],[[".","_",".",".",".",".","_",".",".",".",".","_",".",".",".",".",".",".",".",".",".",".","."],[".","_",".",".",".",".","_",".",".",".",".","_",".",".",".",".",".",".",".",".",".",".","."],[".","_",".",".",".",".","_",".",".",".",".","_",".",".",".",".",".",".",".",".",".",".","."],[4,"_",4,".",".",6,"_",6,".",".",8,"_",8,".",".",6,6,6,6,6,6,6,6],[4,"_",".",4,".",6,"_",".",6,".",8,"_",".",8,".",6,6,6,6,6,6,6,6],[2,"_",".",".",2,4,"_",".",".",4,6,"_",".",".",6,4,4,4,4,4,4,4,4]],[[".","_",".",".",".",".","_",".",".","_",".","_",".",".",".",".","_",".",".","_",".","_",".",".",".",".","_",".",".",".",".",".","."],[".","_",".",".",".",".","_",".",".","_",".","_",".",".",".",".","_",".",".","_",".","_",".",".",".",".","_",".",".",".",".",".","."],[".","_",".",".",".",".","_",".",".","_",".","_",".",".",".",".","_",".",".","_",".","_",".",".",".",".","_",".",".",".",".",".","."],[".","_",".",".",".",".","_",".",".","_",".","_",".",".",".",".","_",".",".","_",".","_",".",".",".",".","_",".",".",".",".",".","."],[".","_",".",".",".",".","_",".",".","_",".","_",".",".",".",".","_",".",".","_",".","_",".",".",".",".","_",".",2,".",3,2,"."],[2,"_",2,2,2,2,"_",2,3,"_",2,"_",2,2,2,2,"_",2,4,"_",2,"_",2,2,2,2,"_",2,".",2,".",".",3]]],"numberofstrings":6,"notes":["E","B","G","D","A","E","B"],"capo":0,"stringnotes":["E4","B3","G3","D3","A2","E2"],"comments":["Stave 1:","Stave 2:","Stave 3:","Stave 4:","Stave 5:","Stave 6:","Stave 7:"],"timing":[["W","W","W","W","W","W","W","W","W","W","W","W","W","W","W","W","W","W","W","W","W","W","W","W"],["W","W","W","W","W","W","W","W","W","W","W","W","W","W","W","W","W","W","W","W","W","W","W","W"],["W","W","W","W"],["W",null,"W","W","W","W","W","W","W","W",null,"W","W","W","W","W","W","W","W",null,"W","W","W","W","W","W","W","W",null,"W","W","W"],["W",null,"W","W","W","W",null,"W","W","W","W",null,"W","W","W","W","W","W","W","W","W"],["W",null,"W","W","W","W","W","W","W","W","W",null,"W","W","W","W","W","W","W","W","W","W","W"],["W",null,"W","W","W","W",null,"W","W",null,"W",null,"W","W","W","W",null,"W","W",null,"W",null,"W","W","W","W",null,"W","W","W","W","W","W"]],"timingvisible":false,"tabcounter":33,"stave":6,"totalstaves":7,"instrument":"6guitar","selectedtuning":"6_standard","version":"13"}

Member for

1 year 9 months
Submitted by FrenchFry on Mon, 2020-06-15 00:01