Eleven Months Blind

Chords

01234567891011121314151617181920212223
E
B
G
D
A
E
B
0 1 2 3 4 5 6 7 8 9 10 11 12 13 14 15 16 17 18 19 20 21 22 23
(/) Slide Up  (\) Slide Down  (h) Hammer On  (p) Pull Off  (b) Bend (r) Release (v) Vibrato

Stave 1:

E|--5--------------------
B|--5-----7-----7-----9--
G|--6-----7-----7-----9--
D|--7-----7-----9-----9--
A|--0-----5-----------7--
E|-----------------------

Stave 2:

E|------------------------
B|--5-----2-----9-----10--
G|--6-----3-----9-----9---
D|--7-----4-----9-----9---
A|--7-----4-----7-----7---
E|--5-----2---------------

							http://www.guitartabcreator.com
genre
Instruments
{"title":"Eleven Months Blind","strings":[[[5,"_",".","_",".","_","."],[5,"_",7,"_",7,"_",9],[6,"_",7,"_",7,"_",9],[7,"_",7,"_",9,"_",9],[0,"_",5,"_",".","_",7],[".","_",".","_",".","_","."]],[[".","_",".","_",".","_","."],[5,"_",2,"_",9,"_",10],[6,"_",3,"_",9,"_",9],[7,"_",4,"_",9,"_",9],[7,"_",4,"_",7,"_",7],[5,"_",2,"_",".","_","."]]],"numberofstrings":6,"notes":["E","B","G","D","A","E","B"],"capo":0,"stringnotes":["E4","B3","G3","D3","A2","E2"],"comments":["Stave 1:","Stave 2:"],"timing":[["W",null,"W",null,"W",null,"W"],["W",null,"W",null,"W",null,"W"]],"timingvisible":false,"tabcounter":6,"stave":1,"totalstaves":2,"instrument":"6guitar","selectedtuning":"6_standard","version":"13"}

Member for

1 year 9 months
Submitted by FrenchFry on Fri, 2020-02-07 23:30