Sound will begin in 5 seconds

NYE Closing 2015

Chords
01234567891011121314151617181920212223
E
B
G
D
A
E
B
0 1 2 3 4 5 6 7 8 9 10 11 12 13 14 15 16 17 18 19 20 21 22 23
Song Science #1: How Pros Use 6 Chords to Write Hit Songs
(/) Slide Up  (\) Slide Down  (h) Hammer On  (p) Pull Off  (b) Bend (r) Release (v) Vibrato

Stave 1:

E|-8-8----8-8----7-7-7-|-
B|-6-6----6-6----6-6-6-|-
G|-7-7----7-7----7-7-7-|-
D|---------------------|-
A|---------------------|-
E|---------------------|-

Stave 2:

E|-10-11-----|---------|-----------|----|-
B|-----------|---------|-----------|----|-
G|-----------|---------|-----------|----|-
D|-------2-3-|-4-5-6-7-|-8-9-10-11-|-12-|-
A|-----------|---------|-----------|----|-
E|-----------|---------|-----------|----|-

Stave 3:

E|------------|-0-|-2-|-3-|-0-|-
B|------------|-0-|-x-|-3-|-1-|-
G|------------|-0-|-2-|-4-|-2-|-
D|------------|-2-|-1-|-5-|-2-|-
A|------------|-2-|-2-|-5-|-0-|-
E|-3-2----2-1-|-0-|-x-|-3-|---|-

Stave 4:

E|-0-|-2------|-------------|-0-0---|-2-2---|-0-0---|-2-2---|-
B|-0-|-4----2-|-------------|-0-0-2-|-4-4-2-|-0-0-2-|-4-4-2-|-
G|-1-|-4----2-|-------------|-1-1-2-|-4-4-2-|-1-1-2-|-4-4-2-|-
D|-2-|-4----2-|-------------|-2-2-2-|-4-4-2-|-2-2-2-|-4-4-2-|-
A|-2-|-2------|-------------|-2-2---|-2-2---|-2-2---|-2-2---|-
E|-0-|-x------|-------------|-0-0---|-x-x---|-0-0---|-x-x---|-

Stave 5:

E|----3-3----3-|-0-0----0-|-0-0----0-|----3-3----3-|-
B|----0-0----0-|-1-1----1-|-1-1----1-|----0-0----0-|-
G|----0-0----0-|-2-2----2-|-0-0----0-|----0-0----0-|-
D|----0-0----0-|-2-2----2-|-2-2----2-|----0-0----0-|-
A|----2-2----2-|-0-0----0-|-3-3----3-|----2-2----2-|-
E|----3-3----3-|----------|----------|----3-3----3-|-

Stave 6:

E|---------------------|------------------------------
B|---------------------|------------------------------
G|----------------8----|-------------------------8-10-
D|-11----11-11-11---11-|-11-11-11----11-11----11------
A|---------------------|------------------------------
E|---------------------|------------------------------

Stave 7:

E|-------------------------------------------------------------
B|-------------------------------------------------------------
G|-------------------------------------------------------------
D|-11-11-11-11-11-11-11-11-11-11-11-11-11-11-11-11-11-11-11-11-
A|-------------------------------------------------------------
E|-------------------------------------------------------------

Stave 8:

E|-3-3-|-1-1-|-3-3-|-1-1-|-5-|-
B|-3-3-|-1-1-|-3-3-|-1-1-|---|-
G|-4-4-|-2-2-|-4-4-|-2-2-|---|-
D|-5-5-|-3-3-|-5-5-|-3-3-|---|-
A|-5-5-|-3-3-|-5-5-|-3-3-|---|-
E|-3-3-|-1-1-|-3-3-|-1-1-|-5-|-

Stave 9:

E|-5-|-0-
B|-6-|-1-
G|-7-|-2-
D|-8-|-2-
A|-x-|-0-
E|-x-|-x-

Stave 10:

E|---------|---------|-----------|----|-x-x-x-13-13----13-13-13-13-|-|-10-10-10-10-|-10-
B|---------|---------|-----------|----|-x-x-x----------------------|-|-------------|----
G|---------|---------|-----------|----|-x-x-x----------------------|-|-------------|----
D|-0-1-2-3-|-4-5-6-7-|-8-9-10-11-|-12-|----------------------------|-|-------------|----
A|---------|---------|-----------|----|----------------------------|-|-------------|----
E|---------|---------|-----------|----|----------------------------|-|-------------|----

http://www.guitartabcreator.com
Guitar Tab Creator is intended to store guitar tab created through the tool. It currently does not support in-line text editing. Any text you place in here will be lost. If you need to comment on your tab, please use the "Tab Notes" section located below.