Sound will begin in 5 seconds

ivan archivaldo

Chords
01234567891011121314151617181920212223
E
B
G
D
A
E
B
0 1 2 3 4 5 6 7 8 9 10 11 12 13 14 15 16 17 18 19 20 21 22 23
Song Science #1: How Pros Use 6 Chords to Write Hit Songs
(/) Slide Up  (\) Slide Down  (h) Hammer On  (p) Pull Off  (b) Bend (r) Release (v) Vibrato

Stave 1:

E|--8---10--10--10--8---10--10--10--8---10--10--10--10--
B|--10--11--11--11--10--11--11--11--10--11--11--11--11--
G|------------------------------------------------------
D|------------------------------------------------------
A|------------------------------------------------------
E|------------------------------------------------------

Stave 2:

E|--8---6--6--8---8---8---8---8---8--8--8--8--8--8--8---8---8---8---
B|--10--8--8--10--10--10--10--10--9--9--9--9--9--9--10--10--10--10--
G|------------------------------------------------------------------
D|------------------------------------------------------------------
A|------------------------------------------------------------------
E|------------------------------------------------------------------

Stave 3:

E|--6--5--5--6--6--6--6--6--6--6--6--6--
B|--8--6--6--8--8--8--7--7--7--8--8--8--
G|--------------------------------------
D|--------------------------------------
A|--------------------------------------
E|--------------------------------------

Stave 4:

E|--5--3--------------0--1--3--5--6--7--8--8---10--
B|--6--5--3--3--2--1--1--3--5--6--7--8--9--10--11--
G|-------------------------------------------------
D|-------------------------------------------------
A|-------------------------------------------------
E|-------------------------------------------------

Stave 5:

E|--10--10--10--8---8---8---8---10--10--10--8---6--6--8---8---8---8---8--8--8--8--8--8--8---8---8---8---
B|--11--11--11--10--10--10--10--11--11--11--10--8--8--10--10--10--10--9--9--9--9--9--9--10--10--10--10--
G|------------------------------------------------------------------------------------------------------
D|------------------------------------------------------------------------------------------------------
A|------------------------------------------------------------------------------------------------------
E|------------------------------------------------------------------------------------------------------

Stave 6:

E|--6--5--5--6--6--6--6--6--6--6--6--6--6--6--6--6--6--5--3--------------
B|--8--6--6--8--8--8--8--7--7--7--7--7--7--8--8--8--8--6--5--3--3--2--1--
G|-----------------------------------------------------------------------
D|-----------------------------------------------------------------------
A|-----------------------------------------------------------------------
E|-----------------------------------------------------------------------

Stave 7:

E|--1-----------------------------
B|--1--3--1-----------------------
G|--2--------3--2-----------------
D|--3--------------1--0-----------
A|-----------------------3--2--1--
E|--------------------------------

http://www.guitartabcreator.com
Guitar Tab Creator is intended to store guitar tab created through the tool. It currently does not support in-line text editing. Any text you place in here will be lost. If you need to comment on your tab, please use the "Tab Notes" section located below.