Sound will begin in 5 seconds

wake up

Chords
01234567891011121314151617181920212223
E
B
G
D
A
E
B
0 1 2 3 4 5 6 7 8 9 10 11 12 13 14 15 16 17 18 19 20 21 22 23
Song Science #1: How Pros Use 6 Chords to Write Hit Songs
(/) Slide Up  (\) Slide Down  (h) Hammer On  (p) Pull Off  (b) Bend (r) Release (v) Vibrato

Stave 1:

E|----------------------------------5----------------------------------------5--------------------------
B|-----3-----2-----2-------6-----5-----5--------3-----2-----2-------6-----5-----5--------3-----2-----2--
G|--2-----2-----2-----2\5-----5-----------5--2-----2-----2-----2\5-----5-----------5--2-----2-----2-----
D|------------------------------------------------------------------------------------------------------
A|------------------------------------------------------------------------------------------------------
D|------------------------------------------------------------------------------------------------------

Stave 2:

E|----------------5----------------------------------------5h7p5--------
B|-------6-----5-----5--------3-----2-----2-------6-----5---------5-----
G|--2\5-----5-----------5--2-----2-----2-----2\5-----5---------------5--
D|----------------------------------------------------------------------
A|----------------------------------------------------------------------
D|----------------------------------------------------------------------

Stave 3:

E|---------------------------------------------------------------------------------
B|--6--6---------------------------------------------------------------------------
G|--7--7---------------------------------------------------------------------------
D|--7--7--12--10--9--7-----7--7--7--7--7-----10--10--10-----9--9--9-----12--10--7--
A|--5--5--10--8---7--5-----5--5--5--5--5-----8---8---8------7--7--7-----10--8---5--
D|---------------------------------------------------------------------------------

Stave 4:

E|----------------------------------------------------------------------------------
B|--6--6--6--6--6--6----------------------------------------------------------------
G|--7--7--7--7--7--7-----5--5--5--5--5--5-------------------------------------------
D|--7--7--7--7--7--7-----5--5--5--5--5--5-----10--10--10-----9--9--9-----12--10--7--
A|--5--5--5--5--5--5-----5--5--5--5--5--5-----8---8---8------7--7--7-----10--8---5--
D|-----------------------5--5--5--5--5--5-------------------------------------------

Stave 5:

E|----------------------------------------------------------------------------
B|--6--6--6--6--6--6----------------------------------------------------------
G|--7--7--7--7--7--7-----3--3--3--3--3--3-----5--5--5--5--5--5----------------
D|--7--7--7--7--7--7-----3--3--3--3--3--3-----5--5--5--5--5--5-----12--10--7--
A|--5--5--5--5--5--5-----3--3--3--3--3--3-----5--5--5--5--5--5-----10--8---5--
D|-----------------------3--3--3--3--3--3-----5--5--5--5--5--5----------------

Stave 6:

E|------------------------------------------------------------------------------
B|------------------------------------------------------------------------------
G|------------------------------------------------------------------------------
D|--12--12--12--12--12--14--12--11--11--11--11--11--12--11--10--10--10--10--10--
A|--10--10--10--10--10--12--10--9---9---9---9---9---10--9---8---8---8---8---8---
D|------------------------------------------------------------------------------

Stave 7:

E|--------------------------------------
B|--------------------------------------
G|--------------------------------------
D|--9--9--9--9-----7--7--7--7--7--7--7--
A|--7--7--7--7-----5--5--5--5--5--5--5--
D|--------------------------------------

Stave 8:

E|-------------------------------------------------------------------------
B|--6--6--6--6--6----------------------------------------------------------
G|--7--7--7--7--7-----5--5--5--5--5--5-------------------------------------
D|--7--7--7--7--7-----5--5--5--5--5--5-----10--10--10--9--9--9--12--10--7--
A|--5--5--5--5--5-----5--5--5--5--5--5-----8---8---8---7--7--7--10--8---5--
D|--------------------5--5--5--5--5--5-------------------------------------

http://www.guitartabcreator.com
Guitar Tab Creator is intended to store guitar tab created through the tool. It currently does not support in-line text editing. Any text you place in here will be lost. If you need to comment on your tab, please use the "Tab Notes" section located below.