A traves del vaso

01234567891011121314151617181920212223
E
B
G
D
A
E
B
0 1 2 3 4 5 6 7 8 9 10 11 12 13 14 15 16 17 18 19 20 21 22 23
(/) Slide Up  (\) Slide Down  (h) Hammer On  (p) Pull Off  (b) Bend (r) Release (v) Vibrato

Stave 1:

E|--8---6--8---6--5-----------8---8---6--6--5--5--5--------
B|--10--8--10--8--6-----------10--10--8--8--6--6--6--------
G|-------------------5--5--5--_--_-----------------5--5--
D|----------------------------_--_-----------------------
A|----------------------------_--_-----------------------
E|----------------------------_--_-----------------------

Stave 2:

E|--8---6--8---6--5-----------8---8---8---6--6--6--5--5--5--5--------
B|--10--8--10--8--6-----------10--10--10--8--8--8--6--6--6--6--------
G|-------------------7--7--7-----------------------------------9--7--
D|-------------------------------------------------------------------
A|-------------------------------------------------------------------
E|-------------------------------------------------------------------

Stave 3:

E|-----------------------------------------
B|-----------------------------------------
G|--7--5--7--5--7--------------------------
D|-----------------8--8--8--7--5--8--8--8--
A|-----------------------------------------
E|-----------------------------------------

Stave 4:

E|--------------------------------------------------------8---10--10--10--8---8---8---6--6--6--5--------------------
B|-----------------------------------------------6--5-----10--11--11--11--10--10--10--8--8--8--6--------------------
G|--7--5--7--5--7--5-----5--7--5--7--5-----5--7---------------_--_--_--_--_--_--------------------------------
D|--------------------8-----------------8---------------------_--_--_--_--_--_--------------------------------
A|------------------------------------------------------------_--_--_--_--_--_--------------------------------
E|------------------------------------------------------------_--_--_--_--_--_--------------------------------

							http://www.guitartabcreator.com
Chords

Instruments
{"title":"A traves del vaso","strings":[[[8,6,8,6,5,".",".","_",8,8,6,6,5,5,5,".","."],[10,8,10,8,6,".",".","_",10,10,8,8,6,6,6,".","."],[".",".",".",".",".",5,5,5,"_","_",".",".",".",".",".",5,5],[".",".",".",".",".",".",".","_","_","_",".",".",".",".",".",".","."],[".",".",".",".",".",".",".","_","_","_",".",".",".",".",".",".","."],[".",".",".",".",".",".",".","_","_","_",".",".",".",".",".",".","."]],[[8,6,8,6,5,".",".",".",8,8,8,6,6,6,5,5,5,5,".","."],[10,8,10,8,6,".",".",".",10,10,10,8,8,8,6,6,6,6,".","."],[".",".",".",".",".",7,7,7,".",".",".",".",".",".",".",".",".",".",9,7],[".",".",".",".",".",".",".",".",".",".",".",".",".",".",".",".",".",".",".","."],[".",".",".",".",".",".",".",".",".",".",".",".",".",".",".",".",".",".",".","."],[".",".",".",".",".",".",".",".",".",".",".",".",".",".",".",".",".",".",".","."]],[[".",".",".",".",".",".",".",".",".",".",".",".","."],[".",".",".",".",".",".",".",".",".",".",".",".","."],[7,5,7,5,7,".",".",".",".",".",".",".","."],[".",".",".",".",".",8,8,8,7,5,8,8,8],[".",".",".",".",".",".",".",".",".",".",".",".","."],[".",".",".",".",".",".",".",".",".",".",".",".","."]],[[".",".",".",".",".",".",".",".",".",".",".",".",".",".",".",".",".",".",8,10,10,10,8,8,8,6,6,6,5,".",".",".",".",".","."],[".",".",".",".",".",".",".",".",".",".",".",".",".",".",".",6,5,".",10,11,11,11,10,10,10,8,8,8,6,".",".",".",".",".","."],[7,5,7,5,7,5,".",5,7,5,7,5,".",5,7,".",".",".",".","_","_","_","_","_","_",".",".",".",".",".",".",".",".",".","."],[".",".",".",".",".",".",8,".",".",".",".",".",8,".",".",".",".",".",".","_","_","_","_","_","_",".",".",".",".",".",".",".",".",".","."],[".",".",".",".",".",".",".",".",".",".",".",".",".",".",".",".",".",".",".","_","_","_","_","_","_",".",".",".",".",".",".",".",".",".","."],[".",".",".",".",".",".",".",".",".",".",".",".",".",".",".",".",".",".",".","_","_","_","_","_","_",".",".",".",".",".",".",".",".",".","."]]],"numberofstrings":6,"notes":["E","B","G","D","A","E","B"],"capo":0,"stringnotes":["E4","B3","G3","D3","A2","E2"],"comments":["Stave 1:","Stave 2:","Stave 3:","Stave 4:"],"timing":[[null,"W","W","W","W","W","W","W","W","W","W",null,"W","W","W","W","W","W"],[null,"W","W","W","W","W","W","W","W","W","W","W","W","W","W","W","W","W","W","W","W"],[null,"W","W","W","W","W","W","W","W","W","W","W","W","W"],[null,"W","W","W","W","W","W","W","W","W","W","W","W","W","W","W","W","W",null,"W","W","W","W","W","W","W",null,null,null,null,null,"W",null,null,null,"W"]],"timingvisible":false,"tabcounter":35,"stave":3,"totalstaves":4,"instrument":"6guitar","selectedtuning":"6_standard","version":"13"}

Member for

2 years 11 months
Submitted by frankysotomusic on Wed, 2018-12-19 01:55