Se les pelo Baltazar

Chords

01234567891011121314151617181920212223
E
B
G
D
A
E
B
0 1 2 3 4 5 6 7 8 9 10 11 12 13 14 15 16 17 18 19 20 21 22 23
(/) Slide Up  (\) Slide Down  (h) Hammer On  (p) Pull Off  (b) Bend (r) Release (v) Vibrato

Stave 1:

E|--0--4--0--2--0--0--0--0-----0----0--0--2--0--0-----
B|--2--5--2--3--2--0--2--0-----0h2--2--2--3--2--0-----
G|-------------------------------------------------2--
D|----------------------------------------------------
A|----------------------------------------------------
E|----------------------------------------------------

Stave 2:

E|--------------------------------------
B|--------------------------------------
G|--------------------------------------
D|--4--2--0--------------------4--6--7--
A|-----------4--2--0--4--5--7-----------
E|--------------------------------------

							http://www.guitartabcreator.com
Instruments
{"title":"Se les pelo Baltazar","strings":[[[0,4,0,2,0,0,0,0,".",0,".",".",0,0,2,0,0,"."],[2,5,2,3,2,0,2,0,".",0,"h",2,2,2,3,2,0,"."],[".",".",".",".",".",".",".",".",".",".",".",".",".",".",".",".",".",2],[".",".",".",".",".",".",".",".",".",".",".",".",".",".",".",".",".","."],[".",".",".",".",".",".",".",".",".",".",".",".",".",".",".",".",".","."],[".",".",".",".",".",".",".",".",".",".",".",".",".",".",".",".",".","."]],[[".",".",".",".",".",".",".",".",".",".",".","."],[".",".",".",".",".",".",".",".",".",".",".","."],[".",".",".",".",".",".",".",".",".",".",".","."],[4,2,0,".",".",".",".",".",".",4,6,7],[".",".",".",4,2,0,4,5,7,".",".","."],[".",".",".",".",".",".",".",".",".",".",".","."]]],"numberofstrings":6,"notes":["E","B","G","D","A","E","B"],"capo":0,"stringnotes":["E4","B3","G3","D3","A2","E2"],"comments":["Stave 1:","Stave 2:"],"timing":[[null,"W","W","W","W","W","W","W","W",null,"W",null,"W","W","W","W","W","W","W"],[null,"W","W","W","W","W","W","W","W","W","W","W","W"]],"timingvisible":false,"tabcounter":12,"stave":1,"totalstaves":2,"instrument":"6guitar","selectedtuning":"6_standard","version":"13"}

Member for

2 years 8 months
Submitted by frankysotomusic on Mon, 2019-01-21 21:23