Para mi viejo

Chords

01234567891011121314151617181920212223
E
B
G
D
A
E
B
0 1 2 3 4 5 6 7 8 9 10 11 12 13 14 15 16 17 18 19 20 21 22 23
(/) Slide Up  (\) Slide Down  (h) Hammer On  (p) Pull Off  (b) Bend (r) Release (v) Vibrato

Stave 1:

E|-----------7--5--7--5--3-----3--3--2--3--2--3--2--0--
B|--0--0--0--8--7--8--7--5-----5--5--3--5--3--5--3--1--
G|-----------------------------------------------------
D|-----------------------------------------------------
A|-----------------------------------------------------
E|-----------------------------------------------------

Stave 2:

E|--3--3--3--3--2--2--2-----2--2--2--5--8---7--
B|--5--5--5--5--3--3--3-----3--3--3--7--10--8--
G|---------------------------------------------
D|---------------------------------------------
A|---------------------------------------------
E|---------------------------------------------

							http://www.guitartabcreator.com
Instruments
{"title":"Para mi viejo","strings":[[[".",".",".",7,5,7,5,3,".",3,3,2,3,2,3,2,0],[0,0,0,8,7,8,7,5,".",5,5,3,5,3,5,3,1],[".",".",".",".",".",".",".",".",".",".",".",".",".",".",".",".","."],[".",".",".",".",".",".",".",".",".",".",".",".",".",".",".",".","."],[".",".",".",".",".",".",".",".",".",".",".",".",".",".",".",".","."],[".",".",".",".",".",".",".",".",".",".",".",".",".",".",".",".","."]],[[3,3,3,3,2,2,2,".",2,2,2,5,8,7],[5,5,5,5,3,3,3,".",3,3,3,7,10,8],[".",".",".",".",".",".",".",".",".",".",".",".",".","."],[".",".",".",".",".",".",".",".",".",".",".",".",".","."],[".",".",".",".",".",".",".",".",".",".",".",".",".","."],[".",".",".",".",".",".",".",".",".",".",".",".",".","."]]],"numberofstrings":6,"notes":["E","B","G","D","A","E","B"],"capo":0,"stringnotes":["E4","B3","G3","D3","A2","E2"],"comments":["Stave 1:","Stave 2:"],"timing":[[null,"W","W","W","W","W","W","W","W",null,"W","W","W","W","W","W","W","W"],[null,"W","W","W","W","W","W","W",null,"W","W","W","W","W","W"]],"timingvisible":false,"tabcounter":14,"stave":1,"totalstaves":2,"instrument":"6guitar","selectedtuning":"6_standard","version":"13"}

Member for

2 years 8 months
Submitted by frankysotomusic on Tue, 2019-01-29 19:17