Murio la flor

01234567891011121314151617181920212223
E
B
G
D
A
E
B
0 1 2 3 4 5 6 7 8 9 10 11 12 13 14 15 16 17 18 19 20 21 22 23
(/) Slide Up  (\) Slide Down  (h) Hammer On  (p) Pull Off  (b) Bend (r) Release (v) Vibrato

Stave 1:

E|--------------------------------------------------------
B|--------------------------------------------------------
G|--------------------------------------------------------
D|-----------7-----------5--------5-----------------------
A|--5--7--8-----8--7--5--------7-----7--8-----5--8--5--7--
E|--------------------------------------------------------

Stave 2:

E|--------------------------------------------------------
B|--------------------------------------------------------
G|--------------------------------------------------------
D|-----------7-----------5--------5-----------------------
A|--5--7--8-----8--7--5--------7-----7--8-----4--7--4--5--
E|--------------------------------------------------------

							http://www.guitartabcreator.com
Chords

Instruments
{"title":"Murio la flor","strings":[[[".",".",".",".",".",".",".",".",".",".",".",".",".",".",".",".",".","."],[".",".",".",".",".",".",".",".",".",".",".",".",".",".",".",".",".","."],[".",".",".",".",".",".",".",".",".",".",".",".",".",".",".",".",".","."],[".",".",".",7,".",".",".",5,".",".",5,".",".",".",".",".",".","."],[5,7,8,".",8,7,5,".",".",7,".",7,8,".",5,8,5,7],[".",".",".",".",".",".",".",".",".",".",".",".",".",".",".",".",".","."]],[["_","_","_","_","_","_","_","_",".",".",".",".",".",".",".",".",".","."],["_","_","_","_","_","_","_","_",".",".",".",".",".",".",".",".",".","."],["_","_","_","_","_","_","_","_",".",".",".",".",".",".",".",".",".","."],["_","_","_",7,"_","_","_",5,".",".",5,".",".",".",".",".",".","."],[5,7,8,"_",8,7,5,"_",".",7,".",7,8,".",4,7,4,5],["_","_","_","_","_","_","_","_",".",".",".",".",".",".",".",".",".","."]]],"numberofstrings":6,"notes":["E","B","G","D","A","E","B"],"capo":0,"stringnotes":["E4","B3","G3","D3","A2","E2"],"comments":["Stave 1:","Stave 2:"],"timing":[[null,"W","W","W","W","W","W","W","W",null,"W","W","W","W",null,"W","W","W","W"],[null,"W","W","W","W","W","W","W","W",null,null,"W","W","W",null,"W","W","W","W"]],"timingvisible":false,"tabcounter":18,"stave":1,"totalstaves":2,"instrument":"6guitar","selectedtuning":"6_standard","version":"13"}

Member for

2 years 11 months
Submitted by frankysotomusic on Mon, 2018-12-10 19:40