Muñeca ojos de miel

01234567891011121314151617181920212223
E
B
G
D
A
E
B
0 1 2 3 4 5 6 7 8 9 10 11 12 13 14 15 16 17 18 19 20 21 22 23
(/) Slide Up  (\) Slide Down  (h) Hammer On  (p) Pull Off  (b) Bend (r) Release (v) Vibrato

Stave 1:

E|--10--10--10--10--8---10--12--10--12--10--8------12--12--10--8---10--
B|--12--12--12--12--10--12--13--12--13--12--10-----13--13--12--10--12--
G|---------------------------------------------------------------------
D|---------------------------------------------------------------------
A|---------------------------------------------------------------------
E|---------------------------------------------------------------------

Stave 2:

E|--10--10--10--10--8---10--12--10--12--10--8------12--12--10--8---7--
B|--12--12--12--12--10--12--13--12--13--12--10-----13--13--12--10--8--
G|--------------------------------------------------------------------
D|--------------------------------------------------------------------
A|--------------------------------------------------------------------
E|--------------------------------------------------------------------

							http://www.guitartabcreator.com
Chords

Instruments
{"title":"Muñeca ojos de miel","strings":[[[10,10,10,10,8,10,12,10,12,10,8,".",12,12,10,8,10],[12,12,12,12,10,12,13,12,13,12,10,".",13,13,12,10,12],[".",".",".",".",".",".",".",".",".",".",".",".",".",".",".",".","."],[".",".",".",".",".",".",".",".",".",".",".",".",".",".",".",".","."],[".",".",".",".",".",".",".",".",".",".",".",".",".",".",".",".","."],[".",".",".",".",".",".",".",".",".",".",".",".",".",".",".",".","."]],[[10,10,10,10,8,10,12,10,12,10,8,".",12,12,10,8,7],[12,12,12,12,10,12,13,12,13,12,10,".",13,13,12,10,8],[".",".",".",".",".",".",".",".",".",".",".",".",".",".",".",".","."],[".",".",".",".",".",".",".",".",".",".",".",".",".",".",".",".","."],[".",".",".",".",".",".",".",".",".",".",".",".",".",".",".",".","."],[".",".",".",".",".",".",".",".",".",".",".",".",".",".",".",".","."]]],"numberofstrings":6,"notes":["E","B","G","D","A","E","B"],"capo":0,"stringnotes":["E4","B3","G3","D3","A2","E2"],"comments":["Stave 1:","Stave 2:"],"timing":[[null,"W","W","W","W","W","W","W","W","W","W","W",null,"W","W","W","W","W"],[null,"W","W","W","W","W","W","W","W","W","W","W",null,"W","W","W","W","W"]],"timingvisible":false,"tabcounter":17,"stave":1,"totalstaves":2,"instrument":"6guitar","selectedtuning":"6_standard","version":"13"}

Member for

2 years 11 months
Submitted by frankysotomusic on Wed, 2018-11-28 00:05