Moneda sin valor

Chords

01234567891011121314151617181920212223
E
B
G
D
A
E
B
0 1 2 3 4 5 6 7 8 9 10 11 12 13 14 15 16 17 18 19 20 21 22 23
(/) Slide Up  (\) Slide Down  (h) Hammer On  (p) Pull Off  (b) Bend (r) Release (v) Vibrato

Stave 1:

E|--7--7--5--7--8---5--8---5--5--8---14--12--10--
B|--8--8--7--8--10--7--10--7--7--10--15--13--12--
G|-----------------------------------------------
D|-----------------------------------------------
A|-----------------------------------------------
E|-----------------------------------------------

Stave 2:

E|--10--10--8---7--10--10--8---7--10--14--12--14--12--------
B|--12--12--10--8--12--12--10--8--12--15--13--15--13--------
G|--------------------------------_--_--_--_--_--------
D|--------------------------------_--_--_--_--_--------
A|--------------------------------_--_--_--_--_--------
E|--------------------------------_--_--_--_--_--------

Stave 3:

E|--12--10--8---_--10--10--_--8--8------7-----
B|--13--12--10--12--_--12--10-----10--8--------
G|--------------_--_--_--_-----_-----------
D|--------------_--_--_--_-----_-----------
A|--------------_--_--_--_-----_-----------
E|--------------_--_--_--_-----_-----------

							http://www.guitartabcreator.com
Instruments
{"title":"Moneda sin valor","strings":[[[7,7,5,7,8,5,8,5,5,8,14,12,10],[8,8,7,8,10,7,10,7,7,10,15,13,12],[".","_","_",".",".",".",".",".",".",".",".",".","."],[".","_","_",".",".",".",".",".",".",".",".",".","."],[".","_","_",".",".",".",".",".",".",".",".",".","."],[".","_","_",".",".",".",".",".",".",".",".",".","."]],[[10,10,8,7,10,10,8,7,10,14,12,14,12,"_","_"],[12,12,10,8,12,12,10,8,12,15,13,15,13,"_","_"],[".",".",".",".",".",".",".",".","_","_","_","_","_","_","_"],[".",".",".",".",".",".",".",".","_","_","_","_","_","_","_"],[".",".",".",".",".",".",".",".","_","_","_","_","_","_","_"],[".",".",".",".",".",".",".",".","_","_","_","_","_","_","_"]],[[12,10,8,"_",10,10,"_",8,8,"_",7,"_"],[13,12,10,12,"_",12,10,"_",10,8,"_","_"],[".",".",".","_","_","_","_","_","_","_","_","_"],[".",".",".","_","_","_","_","_","_","_","_","_"],[".",".",".","_","_","_","_","_","_","_","_","_"],[".",".",".","_","_","_","_","_","_","_","_","_"]]],"numberofstrings":6,"notes":["E","B","G","D","A","E","B"],"capo":0,"stringnotes":["E4","B3","G3","D3","A2","E2"],"comments":["Stave 1:","Stave 2:","Stave 3:"],"timing":[[null,"W","W","W",null,"W","W","W","W","W","W","W","W","W"],[null,"W","W","W","W","W","W","W","W","W","W","W","W","W","W","W",null,null,null,null,null,null,"W"],[null,"W","W","W","W","W","W","W","W","W","W","W","W",null,null,null,null,null,null,null,null,"W"]],"timingvisible":false,"tabcounter":22,"stave":1,"totalstaves":3,"instrument":"6guitar","selectedtuning":"6_standard","version":"13"}

Member for

2 years 8 months
Submitted by frankysotomusic on Mon, 2019-01-07 20:59