Mi Juventud a los 40

01234567891011121314151617181920212223
E
B
G
D
A
E
B
0 1 2 3 4 5 6 7 8 9 10 11 12 13 14 15 16 17 18 19 20 21 22 23
(/) Slide Up  (\) Slide Down  (h) Hammer On  (p) Pull Off  (b) Bend (r) Release (v) Vibrato

Stave 1:

E|--12--12--12--12--12--12--10--10--10--9------9---11--12--14--12--14--12--14--12--14--12--9---7--
B|--14--14--14--14--14--14--12--12--12--10-----10--12--14--16--14--16--14--16--14--16--14--10--9--
G|------------------------------------------------------------------------------------------------
D|------------------------------------------------------------------------------------------------
A|------------------------------------------------------------------------------------------------
E|------------------------------------------------------------------------------------------------

Stave 2:

E|--7--9---11--12--11--12--11--12--11--9---7--5-----5--7--9---11--9---11--9---11--9---7--5--4--
B|--9--10--12--14--12--14--12--14--12--10--9--7-----7--9--10--12--10--12--10--12--10--9--7--5--
G|---------------------------------------------------------------------------------------------
D|---------------------------------------------------------------------------------------------
A|---------------------------------------------------------------------------------------------
E|---------------------------------------------------------------------------------------------

Stave 3:

E|--------------------------------
B|--------------------------------
G|--6-----------------------------
D|-----9--7--6--------------------
A|--------------9--7--------6--7--
E|--------------------7--9--------

							http://www.guitartabcreator.com
Chords

Instruments
{"title":"Mi Juventud a los 40","strings":[[[12,12,12,12,12,12,10,10,10,9,".",9,11,12,14,12,14,12,14,12,14,12,9,7],[14,14,14,14,14,14,12,12,12,10,".",10,12,14,16,14,16,14,16,14,16,14,10,9],[".",".",".",".",".",".",".",".",".",".",".",".",".",".",".",".",".",".",".",".",".",".",".","."],[".",".",".",".",".",".",".",".",".",".",".",".",".",".",".",".",".",".",".",".",".",".",".","."],[".",".",".",".",".",".",".",".",".",".",".",".",".",".",".",".",".",".",".",".",".",".",".","."],[".",".",".",".",".",".",".",".",".",".",".",".",".",".",".",".",".",".",".",".",".",".",".","."]],[[7,9,11,12,11,12,11,12,11,9,7,5,".",5,7,9,11,9,11,9,11,9,7,5,4],[9,10,12,14,12,14,12,14,12,10,9,7,".",7,9,10,12,10,12,10,12,10,9,7,5],[".",".",".",".",".",".",".",".",".",".",".",".",".",".",".",".",".",".",".",".",".",".",".",".","."],[".",".",".",".",".",".",".",".",".",".",".",".",".",".",".",".",".",".",".",".",".",".",".",".","."],[".",".",".",".",".",".",".",".",".",".",".",".",".",".",".",".",".",".",".",".",".",".",".",".","."],[".",".",".",".",".",".",".",".",".",".",".",".",".",".",".",".",".",".",".",".",".",".",".",".","."]],[[".",".",".",".",".",".",".",".",".","."],[".",".",".",".",".",".",".",".",".","."],[6,".",".",".",".",".",".",".",".","."],[".",9,7,6,".",".",".",".",".","."],[".",".",".",".",9,7,".",".",6,7],[".",".",".",".",".",".",7,9,".","."]]],"numberofstrings":6,"notes":["E","B","G","D","A","E","B"],"capo":0,"stringnotes":["E4","B3","G3","D3","A2","E2"],"comments":["Stave 1:","Stave 2:","Stave 3:"],"timing":[[null,"W","W","W","W","W","W","W","W","W","W",null,"W","W","W","W","W","W","W","W","W","W","W","W","W"],[null,"W","W","W","W","W","W","W","W","W","W","W","W",null,"W","W","W","W","W","W","W","W","W","W","W","W"],[null,"W","W","W","W","W","W","W","W","W","W"]],"timingvisible":false,"tabcounter":10,"stave":2,"totalstaves":3,"instrument":"6guitar","selectedtuning":"6_standard","version":"13"}

Member for

2 years 11 months
Submitted by frankysotomusic on Wed, 2018-11-28 00:32