Los peces en el rio

01234567891011121314151617181920212223
E
B
G
D
A
E
B
0 1 2 3 4 5 6 7 8 9 10 11 12 13 14 15 16 17 18 19 20 21 22 23
(/) Slide Up  (\) Slide Down  (h) Hammer On  (p) Pull Off  (b) Bend (r) Release (v) Vibrato

Stave 1:

E|--8---10--12--12--12--12--12--12--12--13--12--13--12--10--10-----10--13--12--13--12--10--10--8---7--8---10--12--8---8---
B|--10--12--13--13--13--13--13--13--13--15--13--15--13--12--12-----12--15--13--15--13--12--12--10--9--10--12--13--10--10--
G|----------------------------------------------------------_------------------------------------------------------------
D|----------------------------------------------------------_------------------------------------------------------------
A|----------------------------------------------------------_------------------------------------------------------------
E|----------------------------------------------------------_------------------------------------------------------------

Stave 2:

E|--12--12--12--12--12--12--13--12--13--12--10-----10--13--12--13--12--10--10--8---7--8---10--12--8---
B|--13--13--13--13--13--13--15--13--15--13--12-----12--15--13--15--13--12--12--10--9--10--12--13--10--
G|----------------------------------------------------------------------------------------------------
D|----------------------------------------------------------------------------------------------------
A|----------------------------------------------------------------------------------------------------
E|----------------------------------------------------------------------------------------------------

							http://www.guitartabcreator.com
Chords

Instruments
{"title":"Los peces en el rio","strings":[[[8,10,12,12,12,12,12,12,12,13,12,13,12,10,10,".",10,13,12,13,12,10,10,8,7,8,10,12,8,8],[10,12,13,13,13,13,13,13,13,15,13,15,13,12,12,".",12,15,13,15,13,12,12,10,9,10,12,13,10,10],[".",".",".",".",".",".",".",".",".",".",".",".",".",".","_",".",".",".",".",".",".",".",".",".",".",".",".",".",".","."],[".",".",".",".",".",".",".",".",".",".",".",".",".",".","_",".",".",".",".",".",".",".",".",".",".",".",".",".",".","."],[".",".",".",".",".",".",".",".",".",".",".",".",".",".","_",".",".",".",".",".",".",".",".",".",".",".",".",".",".","."],[".",".",".",".",".",".",".",".",".",".",".",".",".",".","_",".",".",".",".",".",".",".",".",".",".",".",".",".",".","."]],[[12,12,12,12,12,12,13,12,13,12,10,".",10,13,12,13,12,10,10,8,7,8,10,12,8],[13,13,13,13,13,13,15,13,15,13,12,".",12,15,13,15,13,12,12,10,9,10,12,13,10],[".",".",".",".",".",".",".",".",".",".",".",".",".",".",".",".",".",".",".",".",".",".",".",".","."],[".",".",".",".",".",".",".",".",".",".",".",".",".",".",".",".",".",".",".",".",".",".",".",".","."],[".",".",".",".",".",".",".",".",".",".",".",".",".",".",".",".",".",".",".",".",".",".",".",".","."],[".",".",".",".",".",".",".",".",".",".",".",".",".",".",".",".",".",".",".",".",".",".",".",".","."]]],"numberofstrings":6,"notes":["E","B","G","D","A","E","B"],"capo":0,"stringnotes":["E4","B3","G3","D3","A2","E2"],"comments":["Stave 1:","Stave 2:"],"timing":[[null,"W","W","W","W","W","W","W","W","W","W","W","W","W","W","W",null,"W","W","W","W","W","W","W","W","W","W","W","W","W","W"],[null,"W","W","W","W","W","W","W","W","W","W","W",null,"W","W","W","W","W","W","W","W","W","W","W","W","W"]],"timingvisible":false,"tabcounter":25,"stave":1,"totalstaves":2,"instrument":"6guitar","selectedtuning":"6_standard","version":"13"}

Member for

2 years 11 months
Submitted by frankysotomusic on Wed, 2018-12-12 03:17