Levanto mis manos

Chords

01234567891011121314151617181920212223
E
B
G
D
A
E
B
0 1 2 3 4 5 6 7 8 9 10 11 12 13 14 15 16 17 18 19 20 21 22 23
(/) Slide Up  (\) Slide Down  (h) Hammer On  (p) Pull Off  (b) Bend (r) Release (v) Vibrato

Stave 1:

E|--4--4--5--5-7--7--9------5--5--7--7-9---9---7--5--5-7--7--
B|--5--5--7--7-9--9--10-----7--7--9--9-10--10--9--7--7-9-----
G|-------------------------------------------------------------
D|-------------------------------------------------------------
A|-------------------------------------------------------------
E|-------------------------------------------------------------

Stave 2:

E|--4--4--5--5-7--7--9------9---9---7--5--4--
B|--5--5--7--7-9--9--10-----10--10--9--7--5--
G|-------------------------------------------
D|-------------------------------------------
A|-------------------------------------------
E|-------------------------------------------

							http://www.guitartabcreator.com
Instruments
{"title":"Levanto mis manos","strings":[[[4,4,5,5,"/",7,7,9,".",5,5,7,7,"/",9,9,7,5,5,"/",7,7],[5,5,7,7,"/",9,9,10,".",7,7,9,9,"/",10,10,9,7,7,"/",9,"."],[".",".",".",".",".",".",".",".",".",".",".",".","_","_",".",".",".",".",".",".",".","."],[".",".",".",".",".",".",".",".",".",".",".",".","_","_",".",".",".",".",".",".",".","."],[".",".",".",".",".",".",".",".",".",".",".",".","_","_",".",".",".",".",".",".",".","."],[".",".",".",".",".",".",".",".",".",".",".",".","_","_",".",".",".",".",".",".",".","."]],[[4,4,5,5,"/",7,7,9,".",9,9,7,5,4],[5,5,7,7,"/",9,9,10,".",10,10,9,7,5],[".",".",".",".",".",".",".",".",".",".",".",".",".","."],[".",".",".",".",".",".",".",".",".",".",".",".",".","."],[".",".",".",".",".",".",".",".",".",".",".",".",".","."],[".",".",".",".",".",".",".",".",".",".",".",".",".","."]]],"numberofstrings":6,"notes":["E","B","G","D","A","E","B"],"capo":0,"stringnotes":["E4","B3","G3","D3","A2","E2"],"comments":["Stave 1:","Stave 2:"],"timing":[[null,"W","W","W","W",null,"W","W","W",null,"W","W","W",null,"W",null,"W","W","W","W",null,"W","W"],[null,"W","W","W","W",null,"W","W","W",null,"W","W","W","W","W"]],"timingvisible":false,"tabcounter":14,"stave":1,"totalstaves":2,"instrument":"6guitar","selectedtuning":"6_standard","version":"13"}

Member for

2 years 8 months
Submitted by frankysotomusic on Wed, 2019-01-23 19:09