Feliz Navidad

01234567891011121314151617181920212223
E
B
G
D
A
E
B
0 1 2 3 4 5 6 7 8 9 10 11 12 13 14 15 16 17 18 19 20 21 22 23
(/) Slide Up  (\) Slide Down  (h) Hammer On  (p) Pull Off  (b) Bend (r) Release (v) Vibrato

Stave 1:

E|--3-5--5--5--5--3--2--2--------2-----2-3--3--3--3--2-----------------
B|--5-7--7--7--7--5--3--3--3--3--3-----3-5--5--5--5--3--3--3-----------
G|---------------------------4--4-------------------------4--4--2--2--2--
D|-----------------------------------------------------------------------
A|-----------------------------------------------------------------------
E|-----------------------------------------------------------------------

Stave 2:

E|--3-5--5--5--5--3--2--2-----------3--2--0--0--2--3--3--2--
B|--5-7--7--7--7--5--3--3--3--3--3--5--3--2--2--3--5--5--3--
G|-------------------------4--4--4--------------------------
D|----------------------------------------------------------
A|----------------------------------------------------------
E|----------------------------------------------------------

							http://www.guitartabcreator.com
Chords

Instruments
{"title":"Feliz Navidad","strings":[[[3,"/",5,5,5,5,3,2,2,".",".",2,".",2,"/",3,3,3,3,2,".",".",".",".","."],[5,"/",7,7,7,7,5,3,3,3,3,3,".",3,"/",5,5,5,5,3,3,3,".",".","."],["_","_","_","_","_","_","_",".",".",4,4,".",".",".",".",".",".",".",".",".",4,4,2,2,2],["_","_","_","_","_","_","_",".",".",".",".",".",".",".",".",".",".",".",".",".",".",".",".",".","."],["_","_","_","_","_","_","_",".",".",".",".",".",".",".",".",".",".",".",".",".",".",".",".",".","."],["_","_","_","_","_","_","_",".",".",".",".",".",".",".",".",".",".",".",".",".",".",".",".",".","."]],[[3,"/",5,5,5,5,3,2,2,".",".",".",3,2,0,0,2,3,3,2],[5,"/",7,7,7,7,5,3,3,3,3,3,5,3,2,2,3,5,5,3],[".",".",".",".",".",".",".",".",".",4,4,4,".",".",".",".",".",".",".","."],[".",".",".",".",".",".",".",".",".",".",".",".",".",".",".",".",".",".",".","."],[".",".",".",".",".",".",".",".",".",".",".",".",".",".",".",".",".",".",".","."],[".",".",".",".",".",".",".",".",".",".",".",".",".",".",".",".",".",".",".","."]]],"numberofstrings":6,"notes":["E","B","G","D","A","E","B"],"capo":0,"stringnotes":["E4","B3","G3","D3","A2","E2"],"comments":["Stave 1:","Stave 2:"],"timing":[[null,"W","W","W","W","W","W","W",null,"W","W","W","W",null,"W","W","W","W","W","W","W","W","W","W","W","W"],[null,"W",null,"W","W","W","W","W","W","W","W","W","W",null,"W","W","W","W","W","W","W"]],"timingvisible":false,"tabcounter":20,"stave":1,"totalstaves":2,"instrument":"6guitar","selectedtuning":"6_standard","version":"13"}

Member for

2 years 11 months
Submitted by frankysotomusic on Fri, 2018-12-07 00:21