Dios manda lluvia

Chords

01234567891011121314151617181920212223
E
B
G
D
A
E
B
0 1 2 3 4 5 6 7 8 9 10 11 12 13 14 15 16 17 18 19 20 21 22 23
(/) Slide Up  (\) Slide Down  (h) Hammer On  (p) Pull Off  (b) Bend (r) Release (v) Vibrato

Stave 1:

E|--7--8---10--10-12--12-----12--12--12--10--10--8---8--10--10-----
B|--8--10--12--12-13--13-----13--13--13--12--12--10--10-12--12-----
G|-----------------------------------------------------------------
D|-----------------------------------------------------------------
A|-----------------------------------------------------------------
E|-----------------------------------------------------------------

Stave 2:

E|--7--8--10--8---8---7--8--10--8------7--12--10--7--8---7--
B|--8--10-12--10--10--8--10-12--10-----8--13--12--8--10--8--
G|----------------------------------------_--_-----_-----
D|----------------------------------------_--_-----_-----
A|----------------------------------------_--_-----_-----
E|----------------------------------------_--_-----_-----

							http://www.guitartabcreator.com
Instruments
{"title":"Dios manda lluvia ","strings":[[[7,8,10,10,"/",12,12,".",12,12,12,10,10,8,8,"/",10,10,"."],[8,10,12,12,"/",13,13,".",13,13,13,12,12,10,10,"/",12,12,"."],[".",".",".",".",".",".",".",".",".",".",".",".",".",".",".",".",".",".","."],[".",".",".",".",".",".",".",".",".",".",".",".",".",".",".",".",".",".","."],[".",".",".",".",".",".",".",".",".",".",".",".",".",".",".",".",".",".","."],[".",".",".",".",".",".",".",".",".",".",".",".",".",".",".",".",".",".","."]],[[7,8,"/",10,8,8,7,8,"/",10,8,".",7,12,10,7,8,7],[8,10,"/",12,10,10,8,10,"/",12,10,".",8,13,12,8,10,8],["_",".",".",".",".",".",".",".",".",".",".",".","_","_","_","_","_","."],["_",".",".",".",".",".",".",".",".",".",".",".","_","_","_","_","_","."],["_",".",".",".",".",".",".",".",".",".",".",".","_","_","_","_","_","."],["_",".",".",".",".",".",".",".",".",".",".",".","_","_","_","_","_","."]]],"numberofstrings":6,"notes":["E","B","G","D","A","E","B"],"capo":0,"stringnotes":["E4","B3","G3","D3","A2","E2"],"comments":["Stave 1:","Stave 2:"],"timing":[[null,"W","W","W","W",null,"W","W",null,"W","W","W","W","W","W","W",null,"W","W"],[null,"W","W",null,"W","W","W","W","W",null,"W","W",null,"W","W","W","W","W","W",null,null,null,"W"]],"timingvisible":false,"tabcounter":18,"stave":1,"totalstaves":2,"instrument":"6guitar","selectedtuning":"6_standard","version":"13"}

Member for

2 years 8 months
Submitted by frankysotomusic on Mon, 2019-01-21 21:15