Cuando yo queria ser grande

Chords

01234567891011121314151617181920212223
E
B
G
D
A
E
B
0 1 2 3 4 5 6 7 8 9 10 11 12 13 14 15 16 17 18 19 20 21 22 23
(/) Slide Up  (\) Slide Down  (h) Hammer On  (p) Pull Off  (b) Bend (r) Release (v) Vibrato

Stave 1:

E|------------------------------------------------------
B|-----3--8--7--5--5--4--4--------7--10--8--7--7--5--5--
G|--4--------------------------4------------------------
D|------------------------------------------------------
A|------------------------------------------------------
E|------------------------------------------------------

Stave 2:

E|-----4--7--12--10--10--8--7--10--8--------3--8--10--8--8--7--5--8--7--
B|--5------------------------------------5------------------------------
G|----------------------------------------------------------------------
D|----------------------------------------------------------------------
A|----------------------------------------------------------------------
E|----------------------------------------------------------------------

Stave 3:

E|-----3--7--8--7--7--5--4--7--5-----------2--3--2--2--0--
B|--5--------------------------------0--4-----------------
G|--------------------------------------------------------
D|--------------------------------------------------------
A|--------------------------------------------------------
E|--------------------------------------------------------

							http://www.guitartabcreator.com
Instruments
{"title":"Cuando yo queria ser grande","strings":[[[".",".",".",".",".",".",".",".",".",".",".",".",".",".",".",".","."],[".",3,8,7,5,5,4,4,".",".",7,10,8,7,7,5,5],[4,".",".",".",".",".",".",".",".",4,".",".",".",".",".",".","."],[".",".",".",".",".",".",".",".",".",".",".",".",".",".",".",".","."],[".",".",".",".",".",".",".",".",".",".",".",".",".",".",".",".","."],[".",".",".",".",".",".",".",".",".",".",".",".",".",".",".",".","."]],[["_",4,7,12,10,10,8,7,10,8,".",".",3,8,10,8,8,7,5,8,7],[5,".",".",".",".",".",".",".",".",".",".",5,".",".",".",".","_","_","_","_","_"],["_",".",".",".",".",".",".",".",".",".",".",".",".",".",".",".","_","_","_","_","_"],["_",".",".",".",".",".",".",".",".",".",".",".",".",".",".",".","_","_","_","_","_"],["_",".",".",".",".",".",".",".",".",".",".",".",".",".",".",".","_","_","_","_","_"],["_",".",".",".",".",".",".",".",".",".",".",".",".",".",".",".","_","_","_","_","_"]],[[".",3,7,8,7,7,5,4,7,5,".",".",".",2,3,2,2,0],[5,".",".",".",".",".",".",".",".",".",".",0,4,".",".",".",".","."],[".",".",".",".",".",".",".",".",".",".",".",".",".",".",".",".",".","."],[".",".",".",".",".",".",".",".",".",".",".",".",".",".",".",".",".","."],[".",".",".",".",".",".",".",".",".",".",".",".",".",".",".",".",".","."],[".",".",".",".",".",".",".",".",".",".",".",".",".",".",".",".",".","."]]],"numberofstrings":6,"notes":["E","B","G","D","A","E","B"],"capo":0,"stringnotes":["E4","B3","G3","D3","A2","E2"],"comments":["Stave 1:","Stave 2:","Stave 3:"],"timing":[[null,"W","W","W","W","W","W","W","W",null,"W","W","W","W","W","W","W","W"],[null,"W","W","W","W","W","W","W","W","W","W",null,null,null,null,null,null,"W","W","W","W","W",null,null,null,null,"W","W"],[null,"W","W","W","W","W","W","W","W","W","W",null,"W","W","W","W","W","W","W"]],"timingvisible":false,"tabcounter":18,"stave":2,"totalstaves":3,"instrument":"6guitar","selectedtuning":"6_standard","version":"13"}

Member for

2 years 8 months
Submitted by frankysotomusic on Tue, 2019-01-15 01:50